999
DXF file: bg_BG-E1531-250BB-215-SS.dxf
999
Pro/ENGINEER 2020184 by Parametric Technology Corporation
  0
SECTION
  2
HEADER
  9
$ACADVER
  1
AC1032
  9
$DWGCODEPAGE
  3
ANSI_1252
  9
$EXTMAX
 10
22.0
 20
17.0
 30
0.0
  9
$EXTMIN
 10
0.0
 20
0.0
 30
0.0
  9
$LIMMIN
 10
0.0
 20
0.0
  9
$LIMMAX
 10
22.0
 20
17.0
  9
$VIEWCTR
 10
11.0
 20
8.5
  9
$VIEWSIZE
 40
17.0
  9
$CLAYER
  8
0
  9
$LTSCALE
 40
1.21
  9
$CELTYPE
  6
BYLAYER
  9
$DIMSCALE
 40
1.0
  9
$DIMASZ
 40
0.1875
  9
$DIMEXO
 40
0.0625
  9
$DIMDLI
 40
0.836
  9
$DIMEXE
 40
0.125
  9
$DIMCEN
 40
0.198
  9
$DIMLFAC
 40
7.0
  9
$DIMBLK
  1
_CLOSED
  9
$DIMALT
 70
0
  9
$DIMALTF
 40
25.4
  9
$DIMTXT
 40
0.15625
  9
$DIMTOL
 70
0
  9
$DIMLIM
 70
0
  9
$DIMTFAC
 40
1.0
  9
$DIMGAP
 40
0.09
  9
$DIMDSEP
 70
46
  9
$AUNITS
 70
0
  9
$PDMODE
 70
3
  9
$PDSIZE
 40
0.3125
  9
$HANDSEED
  5
466
  9
$TILEMODE
 70
1
  9
$MEASUREMENT
 70
0
  9
$INSUNITS
 70
1
  0
ENDSEC
  0
SECTION
  2
CLASSES
  0
CLASS
  1
ACDBDICTIONARYWDFLT
  2
AcDbDictionaryWithDefault
  3
AutoCAD 2000
 90
0
 91
1
280
0
281
0
  0
CLASS
  1
ACDBPLACEHOLDER
  2
AcDbPlaceHolder
  3
AutoCAD 2000
 90
0
 91
1
280
0
281
0
  0
CLASS
  1
LAYOUT
  2
AcDbLayout
  3
AutoCAD 2000
 90
0
 91
0
280
0
281
0
  0
ENDSEC
  0
SECTION
  2
TABLES
  0
TABLE
  2
VPORT
  5
8
100
AcDbSymbolTable
 70
2
  0
VPORT
  5
1F4
100
AcDbSymbolTableRecord
100
AcDbViewportTableRecord
  2
*ACTIVE
 70
0
 10
0.0
 20
0.0
 11
1.0
 21
1.0
 12
11.0
 22
8.5
 13
0.0
 23
0.0
 14
1.0
 24
1.0
 15
0.0
 25
0.0
 16
0.0
 26
0.0
 36
1.0
 17
0.0
 27
0.0
 37
0.0
 40
17.0
 41
1.2941176471
 42
50.0
 43
0.0
 44
0.0
 50
0.0
 51
0.0
 71
0
 72
100
 73
1
 74
1
 75
0
 76
0
 77
0
 78
0
  0
ENDTAB
  0
TABLE
  2
LTYPE
  5
5
100
AcDbSymbolTable
 70
6
  0
LTYPE
  5
14
100
AcDbSymbolTableRecord
100
AcDbLinetypeTableRecord
  2
BYBLOCK
 70
0
  3

 72
65
 73
0
 40
0.0
  0
LTYPE
  5
15
100
AcDbSymbolTableRecord
100
AcDbLinetypeTableRecord
  2
BYLAYER
 70
0
  3

 72
65
 73
0
 40
0.0
  0
LTYPE
  5
16
100
AcDbSymbolTableRecord
100
AcDbLinetypeTableRecord
  2
CONTINUOUS
 70
64
  3
Solid line
 72
65
 73
0
 40
0.0
  0
LTYPE
  5
1F5
100
AcDbSymbolTableRecord
100
AcDbLinetypeTableRecord
  2
CENTER
 70
64
  3
____ _ ____ _ ____ _ ____ _ ____ _ ____ _ ____
 72
65
 73
4
 40
0.6
 49
0.375
 74
0
 49
-0.075
 74
0
 49
0.075
 74
0
 49
-0.075
 74
0
  0
LTYPE
  5
1F6
100
AcDbSymbolTableRecord
100
AcDbLinetypeTableRecord
  2
HIDDEN
 70
64
  3
- - - - - - - - - - - - - - - - - - - -
 72
65
 73
2
 40
0.2
 49
0.1
 74
0
 49
-0.1
 74
0
  0
LTYPE
  5
1F7
100
AcDbSymbolTableRecord
100
AcDbLinetypeTableRecord
  2
PHANTOM
 70
64
  3
_____ _ _ _____ _ _ _____ _ _ _____
 72
65
 73
6
 40
0.8
 49
0.45
 74
0
 49
-0.05
 74
0
 49
0.1
 74
0
 49
-0.05
 74
0
 49
0.1
 74
0
 49
-0.05
 74
0
  0
LTYPE
  5
1F8
100
AcDbSymbolTableRecord
100
AcDbLinetypeTableRecord
  2
DOT
 70
64
  3
. . . . . . . . . . . . . . . . . . . .
 72
65
 73
2
 40
0.2
 49
0.1
 74
0
 49
-0.1
 74
0
  0
LTYPE
  5
1F9
100
AcDbSymbolTableRecord
100
AcDbLinetypeTableRecord
  2
DASHED
 70
64
  3
- - - - - - - - - - - - - - - - - - - -
 72
65
 73
2
 40
0.2
 49
0.1
 74
0
 49
-0.1
 74
0
  0
ENDTAB
  0
TABLE
  2
LAYER
  5
2
100
AcDbSymbolTable
 70
36
  0
LAYER
  5
10
100
AcDbSymbolTableRecord
100
AcDbLayerTableRecord
  2
0
 70
0
 62
7
  6
CONTINUOUS
370
-3
390
F
  0
LAYER
  5
1FA
100
AcDbSymbolTableRecord
100
AcDbLayerTableRecord
  2
DEFAULT_1
 70
0
 62
7
  6
CENTER
370
-3
390
F
  0
LAYER
  5
1FB
100
AcDbSymbolTableRecord
100
AcDbLayerTableRecord
  2
DEFAULT_2
 70
0
 62
7
  6
HIDDEN
370
-3
390
F
  0
LAYER
  5
1FC
100
AcDbSymbolTableRecord
100
AcDbLayerTableRecord
  2
DEFAULT_3
 70
0
 62
7
  6
PHANTOM
370
-3
390
F
  0
LAYER
  5
1FD
100
AcDbSymbolTableRecord
100
AcDbLayerTableRecord
  2
01_ALL_DTM_PLN
 70
0
 62
7
  6
CONTINUOUS
370
-3
390
F
  0
LAYER
  5
1FE
100
AcDbSymbolTableRecord
100
AcDbLayerTableRecord
  2
01__ASM_ALL_DTM_PLN
 70
0
 62
7
  6
CONTINUOUS
370
-3
390
F
  0
LAYER
  5
1FF
100
AcDbSymbolTableRecord
100
AcDbLayerTableRecord
  2
01__ASM_DEF_DTM_PLN
 70
0
 62
7
  6
CONTINUOUS
370
-3
390
F
  0
LAYER
  5
200
100
AcDbSymbolTableRecord
100
AcDbLayerTableRecord
  2
01___PRT_ALL_DTM_PLN
 70
0
 62
7
  6
CONTINUOUS
370
-3
390
F
  0
LAYER
  5
201
100
AcDbSymbolTableRecord
100
AcDbLayerTableRecord
  2
01___PRT_DEF_DTM_PLN
 70
0
 62
7
  6
CONTINUOUS
370
-3
390
F
  0
LAYER
  5
202
100
AcDbSymbolTableRecord
100
AcDbLayerTableRecord
  2
02_ALL_AXES
 70
0
 62
7
  6
CONTINUOUS
370
-3
390
F
  0
LAYER
  5
203
100
AcDbSymbolTableRecord
100
AcDbLayerTableRecord
  2
02__ASM_ALL_AXES
 70
0
 62
7
  6
CONTINUOUS
370
-3
390
F
  0
LAYER
  5
204
100
AcDbSymbolTableRecord
100
AcDbLayerTableRecord
  2
02___PRT_ALL_AXES
 70
0
 62
7
  6
CONTINUOUS
370
-3
390
F
  0
LAYER
  5
205
100
AcDbSymbolTableRecord
100
AcDbLayerTableRecord
  2
03_ALL_CURVES
 70
0
 62
7
  6
CONTINUOUS
370
-3
390
F
  0
LAYER
  5
206
100
AcDbSymbolTableRecord
100
AcDbLayerTableRecord
  2
03__ASM_ALL_CURVES
 70
0
 62
7
  6
CONTINUOUS
370
-3
390
F
  0
LAYER
  5
207
100
AcDbSymbolTableRecord
100
AcDbLayerTableRecord
  2
03___PRT_ALL_CURVES
 70
0
 62
7
  6
CONTINUOUS
370
-3
390
F
  0
LAYER
  5
208
100
AcDbSymbolTableRecord
100
AcDbLayerTableRecord
  2
04_ALL_DTM_PNT
 70
0
 62
7
  6
CONTINUOUS
370
-3
390
F
  0
LAYER
  5
209
100
AcDbSymbolTableRecord
100
AcDbLayerTableRecord
  2
04__ASM_ALL_DTM_PNT
 70
0
 62
7
  6
CONTINUOUS
370
-3
390
F
  0
LAYER
  5
20A
100
AcDbSymbolTableRecord
100
AcDbLayerTableRecord
  2
04___PRT_ALL_DTM_PNT
 70
0
 62
7
  6
CONTINUOUS
370
-3
390
F
  0
LAYER
  5
20B
100
AcDbSymbolTableRecord
100
AcDbLayerTableRecord
  2
05_ALL_DTM_CSYS
 70
0
 62
7
  6
CONTINUOUS
370
-3
390
F
  0
LAYER
  5
20C
100
AcDbSymbolTableRecord
100
AcDbLayerTableRecord
  2
05__ASM_ALL_DTM_CSYS
 70
0
 62
7
  6
CONTINUOUS
370
-3
390
F
  0
LAYER
  5
20D
100
AcDbSymbolTableRecord
100
AcDbLayerTableRecord
  2
05__ASM_DEF_DTM_CSYS
 70
0
 62
7
  6
CONTINUOUS
370
-3
390
F
  0
LAYER
  5
20E
100
AcDbSymbolTableRecord
100
AcDbLayerTableRecord
  2
05___PRT_ALL_DTM_CSYS
 70
0
 62
7
  6
CONTINUOUS
370
-3
390
F
  0
LAYER
  5
20F
100
AcDbSymbolTableRecord
100
AcDbLayerTableRecord
  2
05___PRT_DEF_DTM_CSYS
 70
0
 62
7
  6
CONTINUOUS
370
-3
390
F
  0
LAYER
  5
210
100
AcDbSymbolTableRecord
100
AcDbLayerTableRecord
  2
06_ALL_SURFS
 70
0
 62
7
  6
CONTINUOUS
370
-3
390
F
  0
LAYER
  5
211
100
AcDbSymbolTableRecord
100
AcDbLayerTableRecord
  2
06__ASM_ALL_SURFS
 70
0
 62
7
  6
CONTINUOUS
370
-3
390
F
  0
LAYER
  5
212
100
AcDbSymbolTableRecord
100
AcDbLayerTableRecord
  2
06___PRT_ALL_SURFS
 70
0
 62
7
  6
CONTINUOUS
370
-3
390
F
  0
LAYER
  5
213
100
AcDbSymbolTableRecord
100
AcDbLayerTableRecord
  2
07__ASM_ALL_SKELETONS
 70
0
 62
7
  6
CONTINUOUS
370
-3
390
F
  0
LAYER
  5
214
100
AcDbSymbolTableRecord
100
AcDbLayerTableRecord
  2
DTM
 70
0
 62
7
  6
CONTINUOUS
370
-3
390
F
  0
LAYER
  5
215
100
AcDbSymbolTableRecord
100
AcDbLayerTableRecord
  2
HIDE
 70
0
 62
7
  6
CONTINUOUS
370
-3
390
F
  0
ENDTAB
  0
TABLE
  2
STYLE
  5
3
100
AcDbSymbolTable
 70
1
  0
STYLE
  5
11
100
AcDbSymbolTableRecord
100
AcDbTextStyleTableRecord
  2
STANDARD
 70
0
 40
0.0
 41
0.8
 50
0.0
 71
0
 42
0.2
  3
SIMPLEX.SHX
  4

  0
STYLE
  5
216
100
AcDbSymbolTableRecord
100
AcDbTextStyleTableRecord
  2
TEXTSTYLE_1
 70
0
 40
0.0
 41
0.8
 50
0.0
 71
0
 42
0.2
  3
gdt
  4

  0
ENDTAB
  0
TABLE
  2
VIEW
  5
6
100
AcDbSymbolTable
 70
0
  0
ENDTAB
  0
TABLE
  2
UCS
  5
7
100
AcDbSymbolTable
 70
0
  0
ENDTAB
  0
TABLE
  2
APPID
  5
9
100
AcDbSymbolTable
 70
1
  0
APPID
  5
217
100
AcDbSymbolTableRecord
100
AcDbRegAppTableRecord
  2
ACAD
 70
0
  0
ENDTAB
  0
TABLE
  2
BLOCK_RECORD
  5
1
100
AcDbSymbolTable
 70
0
  0
BLOCK_RECORD
  5
218
100
AcDbSymbolTableRecord
100
AcDbBlockTableRecord
  2
*Model_Space
  0
BLOCK_RECORD
  5
219
100
AcDbSymbolTableRecord
100
AcDbBlockTableRecord
  2
*Paper_Space
  0
BLOCK_RECORD
  5
21A
100
AcDbSymbolTableRecord
100
AcDbBlockTableRecord
  2
_CLOSED
  0
ENDTAB
  0
TABLE
  2
DIMSTYLE
  5
A
100
AcDbSymbolTable
 70
1
100
AcDbDimStyleTable
 71
0
  0
DIMSTYLE
105
21B
100
AcDbSymbolTableRecord
100
AcDbDimStyleTableRecord
  2
STANDARD
 70
0
  3

  4

 40
1.0
 41
0.1875
 42
0.0625
 43
0.38
 44
0.125
 45
0.0
 46
0.0
 47
0.0001
 48
0.0001
140
0.15625
141
0.09
142
0.0
143
25.4
144
1.0
145
0.0
146
1.0
147
0.09
 71
0
 72
0
 73
1
 74
1
 75
0
 76
0
 77
0
 78
4
 79
1
170
0
171
3
172
0
173
0
174
0
175
0
176
0
177
0
178
0
270
2
179
4
271
4
272
4
273
2
274
2
275
0
280
0
281
0
282
0
283
1
284
4
285
0
286
0
287
3
288
0
340
11
278
46
341
21A
342
21A
343
21A
344
21A
  0
ENDTAB
  0
ENDSEC
  0
SECTION
  2
BLOCKS
  0
BLOCK
  5
20
100
AcDbEntity
  8
0
100
AcDbBlockBegin
  2
*Model_Space
 70
0
 10
0.0
 20
0.0
 30
0.0
  3
*Model_Space
  1

  0
ENDBLK
  5
21
100
AcDbEntity
  8
0
100
AcDbBlockEnd
  0
BLOCK
  5
1C
100
AcDbEntity
  8
0
100
AcDbBlockBegin
  2
*Paper_Space
 70
0
 10
0.0
 20
0.0
 30
0.0
  3
*Paper_Space
  1

  0
ENDBLK
  5
1D
100
AcDbEntity
  8
0
100
AcDbBlockEnd
  0
BLOCK
  5
21C
100
AcDbEntity
  8
0
100
AcDbBlockBegin
  2
_CLOSED
 70
64
 10
0.0
 20
0.0
  3
_CLOSED
  1

  0
LINE
  5
21D
100
AcDbEntity
  8
0
  6
BYBLOCK
 62
0
100
AcDbLine
 10
0.0
 20
0.0
 11
-1.0
 21
0.1666666667
  0
LINE
  5
21E
100
AcDbEntity
  8
0
  6
BYBLOCK
 62
0
100
AcDbLine
 10
-1.0
 20
0.1666666667
 11
-1.0
 21
-0.1666666667
  0
LINE
  5
21F
100
AcDbEntity
  8
0
  6
BYBLOCK
 62
0
100
AcDbLine
 10
-1.0
 20
-0.1666666667
 11
0.0
 21
0.0
  0
LINE
  5
220
100
AcDbEntity
  8
0
  6
BYBLOCK
 62
0
100
AcDbLine
 10
-1.0
 20
0.0
 11
0.0
 21
0.0
  0
ENDBLK
  5
221
100
AcDbEntity
  8
0
  6
BYBLOCK
 62
0
100
AcDbBlockEnd
  0
ENDSEC
  0
SECTION
  2
ENTITIES
  0
LINE
  5
222
100
AcDbEntity
  8
0
100
AcDbLine
 62
7
  6
BYLAYER
 10
0.0
 20
0.0
 11
0.0
 21
17.0
  0
LINE
  5
223
100
AcDbEntity
  8
0
100
AcDbLine
 62
7
  6
BYLAYER
 10
0.0
 20
0.0
 11
22.0
 21
0.0
  0
LINE
  5
224
100
AcDbEntity
  8
0
100
AcDbLine
 62
7
  6
BYLAYER
 10
0.0
 20
17.0
 11
22.0
 21
17.0
  0
LINE
  5
225
100
AcDbEntity
  8
0
100
AcDbLine
 62
7
  6
BYLAYER
 10
22.0
 20
0.0
 11
22.0
 21
17.0
  0
LINE
  5
226
100
AcDbEntity
  8
0
100
AcDbLine
 62
7
  6
BYLAYER
 10
3.6071428571
 20
3.5817721622
 11
3.6071428571
 21
4.9915935907
  0
LINE
  5
227
100
AcDbEntity
  8
0
100
AcDbLine
 62
7
  6
BYLAYER
 10
3.7
 20
3.5636136646
 11
3.7
 21
5.1259685907
  0
LINE
  5
228
100
AcDbEntity
  8
0
100
AcDbLine
 62
7
  6
BYLAYER
 10
4.3481428571
 20
3.578186096
 11
4.3481428571
 21
3.5366828764
  0
LWPOLYLINE
  5
229
100
AcDbEntity
  8
0
100
AcDbPolyline
 62
7
  6
BYLAYER
 90
53
 70
0
 10
6.8214285714
 20
3.2507514093
 10
6.8299088734
 20
3.2509608902
 10
6.8394090953
 20
3.2516932361
 10
6.8486387555
 20
3.2529128722
 10
6.8575861124
 20
3.2545833892
 10
6.8662389069
 20
3.2566710962
 10
6.8745874114
 20
3.2591447685
 10
6.8826258533
 20
3.2619727978
 10
6.8903497708
 20
3.265123141
 10
6.8977569613
 20
3.268566675
 10
6.9048461859
 20
3.2722766978
 10
6.9116174788
 20
3.2762289304
 10
6.9180725596
 20
3.2804016261
 10
6.9242161655
 20
3.2847740912
 10
6.9300507382
 20
3.2893233242
 10
6.935583241
 20
3.294031426
 10
6.9408097203
 20
3.2988722423
 10
6.9457304862
 20
3.3038226974
 10
6.9503475274
 20
3.3088610689
 10
6.9546640007
 20
3.3139662944
 10
6.9586859887
 20
3.3191177294
 10
6.9624250622
 20
3.3243010466
 10
6.9658775959
 20
3.3294802525
 10
6.9690527106
 20
3.3346351499
 10
6.9719381558
 20
3.3397061135
 10
6.9745315312
 20
3.3446391685
 10
6.9768414521
 20
3.349393134
 10
6.9788713197
 20
3.353909143
 10
6.9806535509
 20
3.3581890604
 10
6.9822066703
 20
3.3622071768
 10
6.9835698321
 20
3.3659993263
 10
6.9847723719
 20
3.3695912947
 10
6.9858379353
 20
3.3730049449
 10
6.9867897997
 20
3.3762730617
 10
6.9876405431
 20
3.3794018327
 10
6.9884055381
 20
3.3824141065
 10
6.9890907059
 20
3.3853011472
 10
6.989703026
 20
3.3880592143
 10
6.9902518189
 20
3.3906980504
 10
6.9907443783
 20
3.3932223257
 10
6.9911885071
 20
3.3956436639
 10
6.9915904554
 20
3.3979701638
 10
6.9919566039
 20
3.4002152982
 10
6.9922917238
 20
3.4023873627
 10
6.9926018901
 20
3.4045077852
 10
6.9928921068
 20
3.4065965352
 10
6.9931659887
 20
3.4086682454
 10
6.993427167
 20
3.4107414614
 10
6.9936778574
 20
3.412826902
 10
6.9939204789
 20
3.4149394639
 10
6.9941564401
 20
3.4170875653
 10
6.9943874252
 20
3.4192838094
 10
6.994837131
 20
3.423838888
  0
LINE
  5
22A
100
AcDbEntity
  8
0
100
AcDbLine
 62
7
  6
BYLAYER
 10
4.7945714286
 20
4.5243590495
 11
4.7945714286
 21
4.0490067034
  0
LINE
  5
22B
100
AcDbEntity
  8
0
100
AcDbLine
 62
7
  6
BYLAYER
 10
6.6560231407
 20
3.4609685907
 11
6.5871428571
 21
3.4609685907
  0
LINE
  5
22C
100
AcDbEntity
  8
0
100
AcDbLine
 62
7
  6
BYLAYER
 10
4.3481428571
 20
3.5366828764
 11
5.6338571429
 21
3.5366828764
  0
LINE
  5
22D
100
AcDbEntity
  8
0
100
AcDbLine
 62
7
  6
BYLAYER
 10
4.8124285714
 20
4.1081114479
 11
4.8124285714
 21
4.465254305
  0
LINE
  5
22E
100
AcDbEntity
  8
0
100
AcDbLine
 62
7
  6
BYLAYER
 10
3.7
 20
3.5636136646
 11
4.3481428571
 21
3.5636136646
  0
LINE
  5
22F
100
AcDbEntity
  8
0
100
AcDbLine
 62
7
  6
BYLAYER
 10
5.6338571429
 20
3.5636136646
 11
5.7633214286
 21
3.5636136646
  0
LINE
  5
230
100
AcDbEntity
  8
0
100
AcDbLine
 62
7
  6
BYLAYER
 10
4.3481428571
 20
3.5638257336
 11
5.6338571429
 21
3.5638257336
  0
LINE
  5
231
100
AcDbEntity
  8
0
100
AcDbLine
 62
7
  6
BYLAYER
 10
5.991
 20
3.5723971622
 11
5.7633214286
 21
3.5723971622
  0
LINE
  5
232
100
AcDbEntity
  8
0
100
AcDbLine
 62
7
  6
BYLAYER
 10
3.6077607642
 20
3.5723971622
 11
3.7
 21
3.5723971622
  0
LINE
  5
233
100
AcDbEntity
  8
0
100
AcDbLine
 62
7
  6
BYLAYER
 10
4.3481428571
 20
3.578186096
 11
5.6338571429
 21
3.578186096
  0
LINE
  5
234
100
AcDbEntity
  8
0
100
AcDbLine
 62
7
  6
BYLAYER
 10
6.5871428591
 20
3.5641828764
 11
5.991
 21
3.6304328764
  0
LINE
  5
235
100
AcDbEntity
  8
0
100
AcDbLine
 62
7
  6
BYLAYER
 10
7.3928571429
 20
3.7509685907
 11
7.2857142857
 21
3.7509685907
  0
LINE
  5
236
100
AcDbEntity
  8
0
100
AcDbLine
 62
7
  6
BYLAYER
 10
5.1695714286
 20
4.465254305
 11
5.1695714286
 21
4.1081114479
  0
LINE
  5
237
100
AcDbEntity
  8
0
100
AcDbLine
 62
7
  6
BYLAYER
 10
5.1874285714
 20
4.5243590495
 11
5.1874285714
 21
4.0490067034
  0
LINE
  5
238
100
AcDbEntity
  8
0
100
AcDbLine
 62
7
  6
BYLAYER
 10
7.2857142857
 20
3.9994519482
 11
7.1428571429
 21
3.9869535677
  0
LINE
  5
239
100
AcDbEntity
  8
0
100
AcDbLine
 62
7
  6
BYLAYER
 10
6.0655178574
 20
3.9254328764
 11
6.5126250017
 21
3.9254328764
  0
LINE
  5
23A
100
AcDbEntity
  8
0
100
AcDbLine
 62
7
  6
BYLAYER
 10
4.7945714286
 20
4.0490067034
 11
5.1874285714
 21
4.0490067034
  0
LINE
  5
23B
100
AcDbEntity
  8
0
100
AcDbLine
 62
7
  6
BYLAYER
 10
4.7945714286
 20
4.0723971622
 11
5.1874285714
 21
4.0723971622
  0
LINE
  5
23C
100
AcDbEntity
  8
0
100
AcDbLine
 62
7
  6
BYLAYER
 10
6.5126250018
 20
4.1795400193
 11
6.0655178574
 21
4.1795400193
  0
LINE
  5
23D
100
AcDbEntity
  8
0
100
AcDbLine
 62
7
  6
BYLAYER
 10
5.6338571429
 20
3.578186096
 11
5.6338571429
 21
3.5366828764
  0
LINE
  5
23E
100
AcDbEntity
  8
0
100
AcDbLine
 62
7
  6
BYLAYER
 10
6.5126250018
 20
4.3938257336
 11
6.0655178574
 21
4.3938257336
  0
LINE
  5
23F
100
AcDbEntity
  8
0
100
AcDbLine
 62
7
  6
BYLAYER
 10
5.7633214286
 20
5.1259685907
 11
5.7633214286
 21
3.5636136646
  0
LINE
  5
240
100
AcDbEntity
  8
0
100
AcDbLine
 62
7
  6
BYLAYER
 10
4.8481428571
 20
4.5009685907
 11
5.1338571429
 21
4.5009685907
  0
LINE
  5
241
100
AcDbEntity
  8
0
100
AcDbLine
 62
7
  6
BYLAYER
 10
4.7945714286
 20
4.5243590495
 11
5.1874285714
 21
4.5243590495
  0
LINE
  5
242
100
AcDbEntity
  8
0
100
AcDbLine
 62
7
  6
BYLAYER
 10
5.8561785714
 20
3.5723971622
 11
5.8561785714
 21
5.0630221622
  0
LINE
  5
243
100
AcDbEntity
  8
0
100
AcDbLine
 62
7
  6
BYLAYER
 10
5.8981428571
 20
3.5723971622
 11
5.8981428571
 21
5.0210578764
  0
LINE
  5
244
100
AcDbEntity
  8
0
100
AcDbLine
 62
7
  6
BYLAYER
 10
7.2857142857
 20
4.6266828764
 11
7.114097389
 21
4.6266828764
  0
LINE
  5
245
100
AcDbEntity
  8
0
100
AcDbLine
 62
7
  6
BYLAYER
 10
6.0655178574
 20
4.6479328764
 11
6.5126250017
 21
4.6479328764
  0
LINE
  5
246
100
AcDbEntity
  8
0
100
AcDbLine
 62
7
  6
BYLAYER
 10
5.991
 20
5.0210578764
 11
5.991
 21
3.5723971622
  0
LINE
  5
247
100
AcDbEntity
  8
0
100
AcDbLine
 62
7
  6
BYLAYER
 10
6.0655178574
 20
4.6479328764
 11
6.0655178574
 21
3.9254328764
  0
LINE
  5
248
100
AcDbEntity
  8
0
100
AcDbLine
 62
7
  6
BYLAYER
 10
7.3928571429
 20
4.8223971622
 11
7.2857142857
 21
4.8223971622
  0
LINE
  5
249
100
AcDbEntity
  8
0
100
AcDbLine
 62
7
  6
BYLAYER
 10
6.5871428591
 20
5.0091828764
 11
5.991
 21
4.9429328764
  0
LINE
  5
24A
100
AcDbEntity
  8
0
100
AcDbLine
 62
7
  6
BYLAYER
 10
6.3214285714
 20
5.2509685907
 11
6.3214285714
 21
5.1523971622
  0
LINE
  5
24B
100
AcDbEntity
  8
0
100
AcDbLine
 62
7
  6
BYLAYER
 10
5.991
 20
5.0210578764
 11
5.8981428571
 21
5.0210578764
  0
LINE
  5
24C
100
AcDbEntity
  8
0
100
AcDbLine
 62
7
  6
BYLAYER
 10
5.8561785714
 20
5.0630221622
 11
5.7633214286
 21
5.0630221622
  0
LINE
  5
24D
100
AcDbEntity
  8
0
100
AcDbLine
 62
7
  6
BYLAYER
 10
3.7
 20
5.0630221622
 11
3.6785714286
 21
5.0630221622
  0
LINE
  5
24E
100
AcDbEntity
  8
0
100
AcDbLine
 62
7
  6
BYLAYER
 10
6.7085670117
 20
5.1123971622
 11
6.5871428571
 21
5.1123971622
  0
LINE
  5
24F
100
AcDbEntity
  8
0
100
AcDbLine
 62
7
  6
BYLAYER
 10
3.7
 20
5.1259685907
 11
5.7633214286
 21
5.1259685907
  0
LINE
  5
250
100
AcDbEntity
  8
0
100
AcDbLine
 62
7
  6
BYLAYER
 10
5.8981428571
 20
5.0210578764
 11
5.8561785714
 21
5.0630221622
  0
LINE
  5
251
100
AcDbEntity
  8
0
100
AcDbLine
 62
7
  6
BYLAYER
 10
6.5126250017
 20
4.6479328764
 11
6.5126250017
 21
3.9254328764
  0
LWPOLYLINE
  5
252
100
AcDbEntity
  8
0
100
AcDbPolyline
 62
7
  6
BYLAYER
 90
29
 70
0
 10
6.8214285714
 20
5.1868575915
 10
6.8154951788
 20
5.1867119758
 10
6.8082516072
 20
5.1861391268
 10
6.8009722164
 20
5.1851213595
 10
6.7937363179
 20
5.1836596517
 10
6.7866046381
 20
5.1817626038
 10
6.7796355848
 20
5.1794486169
 10
6.7728831386
 20
5.1767484758
 10
6.7663971754
 20
5.1737012338
 10
6.7602235473
 20
5.1703532069
 10
6.7543968966
 20
5.1667534833
 10
6.7489578216
 20
5.1629660066
 10
6.7438926048
 20
5.1590266532
 10
6.739204661
 20
5.1549832381
 10
6.7348644711
 20
5.1508534289
 10
6.7308474371
 20
5.1466516823
 10
6.7271444771
 20
5.1424041515
 10
6.7237323716
 20
5.138120185
 10
6.720621114
 20
5.133852148
 10
6.7178079969
 20
5.1296424702
 10
6.7152854133
 20
5.1255305541
 10
6.7130499776
 20
5.1215675936
 10
6.7110694853
 20
5.1177547638
 10
6.7093255321
 20
5.1141132467
 10
6.7077796442
 20
5.1106158138
 10
6.7064005689
 20
5.1072373413
 10
6.7051690837
 20
5.1039707372
 10
6.704061513
 20
5.1007879148
 10
6.7033878302
 20
5.0987163446
  0
LINE
  5
253
100
AcDbEntity
  8
0
100
AcDbLine
 62
7
  6
BYLAYER
 10
7.3214285714
 20
5.1523971622
 11
6.9107142857
 21
5.1523971622
  0
LINE
  5
254
100
AcDbEntity
  8
0
100
AcDbLine
 62
7
  6
BYLAYER
 10
6.3214285714
 20
5.1523971622
 11
6.7321428571
 21
5.1523971622
  0
LINE
  5
255
100
AcDbEntity
  8
0
100
AcDbLine
 62
7
  6
BYLAYER
 10
6.7421428571
 20
5.1981114479
 11
6.9007142857
 21
5.1981114479
  0
LINE
  5
256
100
AcDbEntity
  8
0
100
AcDbLine
 62
7
  6
BYLAYER
 10
6.3214285714
 20
5.2509685907
 11
7.3214285714
 21
5.2509685907
  0
LWPOLYLINE
  5
257
100
AcDbEntity
  8
0
100
AcDbPolyline
 62
7
  6
BYLAYER
 90
51
 70
0
 10
6.6481899618
 20
3.4220729539
 10
6.6484402751
 20
3.4195705929
 10
6.6486969322
 20
3.4171226631
 10
6.6489613252
 20
3.4147203573
 10
6.6492354895
 20
3.4123509313
 10
6.6495215048
 20
3.4100036659
 10
6.6498222833
 20
3.407663705
 10
6.6501407588
 20
3.4053192511
 10
6.650481478
 20
3.40295035
 10
6.6508492204
 20
3.4005403562
 10
6.6512502656
 20
3.3980681828
 10
6.6516922262
 20
3.3955112738
 10
6.6521819082
 20
3.3928582539
 10
6.6527283479
 20
3.3900914777
 10
6.6533392779
 20
3.3872057895
 10
6.6540243452
 20
3.3841914633
 10
6.6547930067
 20
3.3810443659
 10
6.6556563998
 20
3.3777576843
 10
6.6566243509
 20
3.3743334113
 10
6.657706989
 20
3.3707746512
 10
6.6589175129
 20
3.3670772589
 10
6.6602657515
 20
3.3632502267
 10
6.6617761026
 20
3.3592660266
 10
6.6634709845
 20
3.355112717
 10
6.6653813729
 20
3.3507673356
 10
6.6675469732
 20
3.3462003864
 10
6.6699849107
 20
3.3414383628
 10
6.6727266423
 20
3.3364826035
 10
6.6757720691
 20
3.3313928245
 10
6.679124528
 20
3.3262147534
 10
6.6827837956
 20
3.3209934969
 10
6.6867381138
 20
3.3157830832
 10
6.6910005977
 20
3.3105996368
 10
6.6955740812
 20
3.3054718401
 10
6.7004656355
 20
3.3004196976
 10
6.7056791465
 20
3.2954659458
 10
6.711216024
 20
3.2906355883
 10
6.7170749632
 20
3.2859555965
 10
6.7232594046
 20
3.2814492454
 10
6.7297675166
 20
3.2771444428
 10
6.736606385
 20
3.273062587
 10
6.7437778618
 20
3.2692270442
 10
6.7512826064
 20
3.2656632742
 10
6.7591198336
 20
3.2623994453
 10
6.7672873257
 20
3.259466512
 10
6.7757805823
 20
3.25689857
 10
6.7845936441
 20
3.2547298416
 10
6.7937161334
 20
3.2529937909
 10
6.8031351703
 20
3.2517263364
 10
6.812838218
 20
3.2509663601
 10
6.8214285714
 20
3.2507514093
  0
LINE
  5
258
100
AcDbEntity
  8
0
100
AcDbLine
 62
7
  6
BYLAYER
 10
6.6477032494
 20
3.4272797285
 11
6.6481899618
 21
3.4220729539
  0
LINE
  5
259
100
AcDbEntity
  8
0
100
AcDbLine
 62
7
  6
BYLAYER
 10
6.6472290031
 20
3.4328081353
 11
6.6477032494
 21
3.4272797285
  0
LINE
  5
25A
100
AcDbEntity
  8
0
100
AcDbLine
 62
7
  6
BYLAYER
 10
6.646761675
 20
3.4387148975
 11
6.6472290031
 21
3.4328081353
  0
LINE
  5
25B
100
AcDbEntity
  8
0
100
AcDbLine
 62
7
  6
BYLAYER
 10
6.646297108
 20
3.4450523011
 11
6.646761675
 21
3.4387148975
  0
LINE
  5
25C
100
AcDbEntity
  8
0
100
AcDbLine
 62
7
  6
BYLAYER
 10
6.6458323182
 20
3.4518665443
 11
6.646297108
 21
3.4450523011
  0
LINE
  5
25D
100
AcDbEntity
  8
0
100
AcDbLine
 62
7
  6
BYLAYER
 10
6.6452577408
 20
3.4609685907
 11
6.6458323182
 21
3.4518665443
  0
LINE
  5
25E
100
AcDbEntity
  8
0
100
AcDbLine
 62
7
  6
BYLAYER
 10
6.6053540875
 20
5.1123971601
 11
6.6037694108
 21
5.1523971622
  0
LINE
  5
25F
100
AcDbEntity
  8
0
100
AcDbLine
 62
7
  6
BYLAYER
 10
6.5714285714
 20
5.1523971622
 11
6.5714285714
 21
5.0074365307
  0
LINE
  5
260
100
AcDbEntity
  8
0
100
AcDbLine
 62
7
  6
BYLAYER
 10
6.5871428571
 20
5.1123971622
 11
6.5871428571
 21
3.4609685907
  0
LINE
  5
261
100
AcDbEntity
  8
0
100
AcDbLine
 62
7
  6
BYLAYER
 10
6.6920377776
 20
4.9952883343
 11
6.6912986964
 21
4.9779170204
  0
LINE
  5
262
100
AcDbEntity
  8
0
100
AcDbLine
 62
7
  6
BYLAYER
 10
6.6923735242
 20
5.0025866262
 11
6.6920377776
 21
4.9952883343
  0
LINE
  5
263
100
AcDbEntity
  8
0
100
AcDbLine
 62
7
  6
BYLAYER
 10
6.7321428571
 20
5.1480066688
 11
6.7321428571
 21
5.1881114479
  0
LINE
  5
264
100
AcDbEntity
  8
0
100
AcDbLine
 62
7
  6
BYLAYER
 10
6.6735745165
 20
4.1348160403
 11
6.6719453626
 21
4.0433152807
  0
LINE
  5
265
100
AcDbEntity
  8
0
100
AcDbLine
 62
7
  6
BYLAYER
 10
6.6719453626
 20
4.0433152807
 11
6.6706522811
 21
3.9735016656
  0
LINE
  5
266
100
AcDbEntity
  8
0
100
AcDbLine
 62
7
  6
BYLAYER
 10
6.682357673
 20
4.6332668029
 11
6.6735745165
 21
4.1348160403
  0
LINE
  5
267
100
AcDbEntity
  8
0
100
AcDbLine
 62
7
  6
BYLAYER
 10
6.6706522811
 20
3.9735016656
 11
6.6694125562
 21
3.9093293742
  0
LINE
  5
268
100
AcDbEntity
  8
0
100
AcDbLine
 62
7
  6
BYLAYER
 10
6.6694125562
 20
3.9093293742
 11
6.6682211149
 21
3.8505211713
  0
LINE
  5
269
100
AcDbEntity
  8
0
100
AcDbLine
 62
7
  6
BYLAYER
 10
6.6682211149
 20
3.8505211713
 11
6.667073882
 21
3.7968058167
  0
LINE
  5
26A
100
AcDbEntity
  8
0
100
AcDbLine
 62
7
  6
BYLAYER
 10
6.68488226
 20
4.7537957795
 11
6.682357673
 21
4.6332668029
  0
LINE
  5
26B
100
AcDbEntity
  8
0
100
AcDbLine
 62
7
  6
BYLAYER
 10
6.667073882
 20
3.7968058167
 11
6.6659670122
 21
3.7478953151
  0
LINE
  5
26C
100
AcDbEntity
  8
0
100
AcDbLine
 62
7
  6
BYLAYER
 10
6.6659670122
 20
3.7478953151
 11
6.6648969615
 21
3.7035019423
  0
LINE
  5
26D
100
AcDbEntity
  8
0
100
AcDbLine
 62
7
  6
BYLAYER
 10
6.6869878612
 20
4.8412678859
 11
6.68488226
 21
4.7537957795
  0
LINE
  5
26E
100
AcDbEntity
  8
0
100
AcDbLine
 62
7
  6
BYLAYER
 10
6.6648969615
 20
3.7035019423
 11
6.6640670347
 21
3.6711200059
  0
LINE
  5
26F
100
AcDbEntity
  8
0
100
AcDbLine
 62
7
  6
BYLAYER
 10
6.6640670347
 20
3.6711200059
 11
6.6632608066
 21
3.6414403122
  0
LINE
  5
270
100
AcDbEntity
  8
0
100
AcDbLine
 62
7
  6
BYLAYER
 10
6.6632608066
 20
3.6414403122
 11
6.6624787771
 21
3.6143734174
  0
LINE
  5
271
100
AcDbEntity
  8
0
100
AcDbLine
 62
7
  6
BYLAYER
 10
6.6887316297
 20
4.9036835221
 11
6.6869878612
 21
4.8412678859
  0
LINE
  5
272
100
AcDbEntity
  8
0
100
AcDbLine
 62
7
  6
BYLAYER
 10
6.6624787771
 20
3.6143734174
 11
6.6617215223
 21
3.5898202096
  0
LINE
  5
273
100
AcDbEntity
  8
0
100
AcDbLine
 62
7
  6
BYLAYER
 10
6.6617215223
 20
3.5898202096
 11
6.6609898907
 21
3.5676791583
  0
LINE
  5
274
100
AcDbEntity
  8
0
100
AcDbLine
 62
7
  6
BYLAYER
 10
6.69015023
 20
4.9473591984
 11
6.6887316297
 21
4.9036835221
  0
LINE
  5
275
100
AcDbEntity
  8
0
100
AcDbLine
 62
7
  6
BYLAYER
 10
6.6609898907
 20
3.5676791583
 11
6.6602850143
 21
3.5478460082
  0
LINE
  5
276
100
AcDbEntity
  8
0
100
AcDbLine
 62
7
  6
BYLAYER
 10
6.6602850143
 20
3.5478460082
 11
6.6596082144
 21
3.5302107775
  0
LWPOLYLINE
  5
277
100
AcDbEntity
  8
0
100
AcDbPolyline
 62
7
  6
BYLAYER
 90
3
 70
0
 10
6.6912986964
 20
4.9779170204
 10
6.6911108723
 20
4.9732158872
 10
6.69015023
 20
4.9473591984
  0
LINE
  5
278
100
AcDbEntity
  8
0
100
AcDbLine
 62
7
  6
BYLAYER
 10
6.6596082144
 20
3.5302107775
 11
6.658960191
 21
3.5146396112
  0
LINE
  5
279
100
AcDbEntity
  8
0
100
AcDbLine
 62
7
  6
BYLAYER
 10
6.658960191
 20
3.5146396112
 11
6.6583401493
 21
3.5009649145
  0
LINE
  5
27A
100
AcDbEntity
  8
0
100
AcDbLine
 62
7
  6
BYLAYER
 10
6.6583401493
 20
3.5009649145
 11
6.6577476827
 21
3.489037812
  0
LINE
  5
27B
100
AcDbEntity
  8
0
100
AcDbLine
 62
7
  6
BYLAYER
 10
6.6577476827
 20
3.489037812
 11
6.6571835399
 21
3.4787394719
  0
LINE
  5
27C
100
AcDbEntity
  8
0
100
AcDbLine
 62
7
  6
BYLAYER
 10
6.6571835399
 20
3.4787394719
 11
6.6567812386
 21
3.4720435553
  0
LINE
  5
27D
100
AcDbEntity
  8
0
100
AcDbLine
 62
7
  6
BYLAYER
 10
6.6567812386
 20
3.4720435553
 11
6.6564008085
 21
3.4662249756
  0
LINE
  5
27E
100
AcDbEntity
  8
0
100
AcDbLine
 62
7
  6
BYLAYER
 10
6.6564008085
 20
3.4662249756
 11
6.6561618479
 21
3.4628349361
  0
LINE
  5
27F
100
AcDbEntity
  8
0
100
AcDbLine
 62
7
  6
BYLAYER
 10
6.6561618479
 20
3.4628349361
 11
6.6559369061
 21
3.4598388849
  0
LINE
  5
280
100
AcDbEntity
  8
0
100
AcDbLine
 62
7
  6
BYLAYER
 10
6.6559369061
 20
3.4598388849
 11
6.6557285422
 21
3.4572412935
  0
LINE
  5
281
100
AcDbEntity
  8
0
100
AcDbLine
 62
7
  6
BYLAYER
 10
6.6557285422
 20
3.4572412935
 11
6.6555400612
 21
3.4550492995
  0
LINE
  5
282
100
AcDbEntity
  8
0
100
AcDbLine
 62
7
  6
BYLAYER
 10
6.6555400612
 20
3.4550492995
 11
6.6553758035
 21
3.4532736698
  0
LWPOLYLINE
  5
283
100
AcDbEntity
  8
0
100
AcDbPolyline
 62
7
  6
BYLAYER
 90
4
 70
0
 10
6.6553758035
 20
3.4532736698
 10
6.6552416036
 20
3.4519304039
 10
6.6551881911
 20
3.4514280333
 10
6.6551454534
 20
3.451042598
  0
LINE
  5
284
100
AcDbEntity
  8
0
100
AcDbLine
 62
7
  6
BYLAYER
 10
6.6551454534
 20
3.451042598
 11
6.6551089057
 21
3.4507283727
  0
LINE
  5
285
100
AcDbEntity
  8
0
100
AcDbLine
 62
7
  6
BYLAYER
 10
6.9876654495
 20
3.4514603174
 11
6.9875489871
 21
3.4525832358
  0
LINE
  5
286
100
AcDbEntity
  8
0
100
AcDbLine
 62
7
  6
BYLAYER
 10
6.9875489871
 20
3.4525832358
 11
6.9873994214
 21
3.4541425139
  0
LINE
  5
287
100
AcDbEntity
  8
0
100
AcDbLine
 62
7
  6
BYLAYER
 10
6.9873994214
 20
3.4541425139
 11
6.987223233
 21
3.4561211857
  0
LINE
  5
288
100
AcDbEntity
  8
0
100
AcDbLine
 62
7
  6
BYLAYER
 10
6.987223233
 20
3.4561211857
 11
6.9870252974
 21
3.4585071033
  0
LINE
  5
289
100
AcDbEntity
  8
0
100
AcDbLine
 62
7
  6
BYLAYER
 10
6.9870252974
 20
3.4585071033
 11
6.9868093495
 21
3.4612916148
  0
LINE
  5
28A
100
AcDbEntity
  8
0
100
AcDbLine
 62
7
  6
BYLAYER
 10
6.9868093495
 20
3.4612916148
 11
6.9865782965
 21
3.4644686205
  0
LINE
  5
28B
100
AcDbEntity
  8
0
100
AcDbLine
 62
7
  6
BYLAYER
 10
6.9865782965
 20
3.4644686205
 11
6.9862083056
 21
3.4699609402
  0
LINE
  5
28C
100
AcDbEntity
  8
0
100
AcDbLine
 62
7
  6
BYLAYER
 10
6.9862083056
 20
3.4699609402
 11
6.98581542
 21
3.4763165529
  0
LINE
  5
28D
100
AcDbEntity
  8
0
100
AcDbLine
 62
7
  6
BYLAYER
 10
6.98581542
 20
3.4763165529
 11
6.9852633331
 21
3.4861253187
  0
LINE
  5
28E
100
AcDbEntity
  8
0
100
AcDbLine
 62
7
  6
BYLAYER
 10
6.9852633331
 20
3.4861253187
 11
6.9846833912
 21
3.4975016721
  0
LINE
  5
28F
100
AcDbEntity
  8
03___PRT_ALL_CURVES
100
AcDbLine
 62
7
  6
BYLAYER
 10
6.8214285714
 20
5.1868575915
 11
6.8214285714
 21
3.2507514093
  0
LINE
  5
290
100
AcDbEntity
  8
0
100
AcDbLine
 62
7
  6
BYLAYER
 10
6.9107142857
 20
5.1480251785
 11
6.9107142857
 21
5.1881114479
  0
LWPOLYLINE
  5
291
100
AcDbEntity
  8
0
100
AcDbPolyline
 62
7
  6
BYLAYER
 90
4
 70
0
 10
6.9877612721
 20
3.4506218
 10
6.9877400358
 20
3.4507972947
 10
6.987708611
 20
3.4510697898
 10
6.9876654495
 20
3.4514603174
  0
LWPOLYLINE
  5
292
100
AcDbEntity
  8
0
100
AcDbPolyline
 62
7
  6
BYLAYER
 90
47
 70
0
 10
6.9464364052
 20
5.0629075486
 10
6.9462601505
 20
5.0645108457
 10
6.946076809
 20
5.0661082255
 10
6.9458852279
 20
5.0677045374
 10
6.9456836879
 20
5.0693079228
 10
6.94547049
 20
5.0709245645
 10
6.9452430705
 20
5.0725651316
 10
6.9449989031
 20
5.0742374084
 10
6.9447340135
 20
5.0759560252
 10
6.9444437956
 20
5.077735418
 10
6.944124002
 20
5.0795837342
 10
6.9437692418
 20
5.0815118993
 10
6.9433738005
 20
5.0835282992
 10
6.942930746
 20
5.0856431664
 10
6.9424328653
 20
5.0878634909
 10
6.9418709771
 20
5.0902003217
 10
6.9412380781
 20
5.0926514291
 10
6.9405268223
 20
5.0952140134
 10
6.9397250693
 20
5.0978992474
 10
6.9388243781
 20
5.1007017624
 10
6.9377995704
 20
5.1036615933
 10
6.9366266227
 20
5.1068013855
 10
6.935273315
 20
5.1101520842
 10
6.933695662
 20
5.1137549969
 10
6.9318751702
 20
5.1175788248
 10
6.9297766835
 20
5.121623915
 10
6.927399919
 20
5.1258219803
 10
6.924741878
 20
5.1301203539
 10
6.9218010423
 20
5.1344718473
 10
6.918590975
 20
5.1388161367
 10
6.9150923254
 20
5.1431432134
 10
6.9112970719
 20
5.1474261508
 10
6.9071926488
 20
5.1516449593
 10
6.9027690218
 20
5.1557767188
 10
6.8980202468
 20
5.1597933309
 10
6.8929376512
 20
5.1636676346
 10
6.8875283393
 20
5.167359798
 10
6.8817954287
 20
5.1708348469
 10
6.8757617982
 20
5.1740516601
 10
6.8694507484
 20
5.17697449
 10
6.8628904863
 20
5.179569189
 10
6.8561124545
 20
5.1818043643
 10
6.8491502879
 20
5.183652761
 10
6.8420412829
 20
5.1850945682
 10
6.8348252161
 20
5.1861149359
 10
6.8275519322
 20
5.1867025051
 10
6.8214285714
 20
5.1868575915
  0
LINE
  5
293
100
AcDbEntity
  8
0
100
AcDbLine
 62
7
  6
BYLAYER
 10
6.946771968
 20
5.0596605792
 11
6.9464364052
 21
5.0629075486
  0
LINE
  5
294
100
AcDbEntity
  8
0
100
AcDbLine
 62
7
  6
BYLAYER
 10
6.9470900504
 20
5.0563319544
 11
6.946771968
 21
5.0596605792
  0
LINE
  5
295
100
AcDbEntity
  8
0
100
AcDbLine
 62
7
  6
BYLAYER
 10
6.9473952368
 20
5.0528939711
 11
6.9470900504
 21
5.0563319544
  0
LINE
  5
296
100
AcDbEntity
  8
0
100
AcDbLine
 62
7
  6
BYLAYER
 10
6.9476907639
 20
5.049324995
 11
6.9473952368
 21
5.0528939711
  0
LINE
  5
297
100
AcDbEntity
  8
0
100
AcDbLine
 62
7
  6
BYLAYER
 10
6.9479789557
 20
5.0456079481
 11
6.9476907639
 21
5.049324995
  0
LINE
  5
298
100
AcDbEntity
  8
0
100
AcDbLine
 62
7
  6
BYLAYER
 10
6.9484019666
 20
5.0397127002
 11
6.9479789557
 21
5.0456079481
  0
LINE
  5
299
100
AcDbEntity
  8
0
100
AcDbLine
 62
7
  6
BYLAYER
 10
6.9488184222
 20
5.0333811834
 11
6.9484019666
 21
5.0397127002
  0
LINE
  5
29A
100
AcDbEntity
  8
0
100
AcDbLine
 62
7
  6
BYLAYER
 10
6.949231964
 20
5.0265612379
 11
6.9488184222
 21
5.0333811834
  0
LINE
  5
29B
100
AcDbEntity
  8
0
100
AcDbLine
 62
7
  6
BYLAYER
 10
6.9497832037
 20
5.0166264337
 11
6.949231964
 21
5.0265612379
  0
LINE
  5
29C
100
AcDbEntity
  8
0
100
AcDbLine
 62
7
  6
BYLAYER
 10
6.9503381832
 20
5.0056333981
 11
6.9497832037
 21
5.0166264337
  0
LINE
  5
29D
100
AcDbEntity
  8
0
100
AcDbLine
 62
7
  6
BYLAYER
 10
6.9846833912
 20
3.4975016721
 11
6.9840771016
 21
3.5105421781
  0
LINE
  5
29E
100
AcDbEntity
  8
0
100
AcDbLine
 62
7
  6
BYLAYER
 10
6.9510417425
 20
4.9902506323
 11
6.9503381832
 21
5.0056333981
  0
LINE
  5
29F
100
AcDbEntity
  8
0
100
AcDbLine
 62
7
  6
BYLAYER
 10
6.9840771016
 20
3.5105421781
 11
6.9834446643
 21
3.5253709876
  0
LINE
  5
2A0
100
AcDbEntity
  8
0
100
AcDbLine
 62
7
  6
BYLAYER
 10
6.9519059126
 20
4.9691288718
 11
6.9510417425
 21
4.9902506323
  0
LINE
  5
2A1
100
AcDbEntity
  8
0
100
AcDbLine
 62
7
  6
BYLAYER
 10
6.9834446643
 20
3.5253709876
 11
6.9827855214
 21
3.54213568
  0
LINE
  5
2A2
100
AcDbEntity
  8
0
100
AcDbLine
 62
7
  6
BYLAYER
 10
6.9827855214
 20
3.54213568
 11
6.9820993312
 21
3.5609854736
  0
LINE
  5
2A3
100
AcDbEntity
  8
0
100
AcDbLine
 62
7
  6
BYLAYER
 10
6.9529508664
 20
4.9403120717
 11
6.9519059126
 21
4.9691288718
  0
LINE
  5
2A4
100
AcDbEntity
  8
0
100
AcDbLine
 62
7
  6
BYLAYER
 10
6.9820993312
 20
3.5609854736
 11
6.9813865885
 21
3.5820485731
  0
LINE
  5
2A5
100
AcDbEntity
  8
0
100
AcDbLine
 62
7
  6
BYLAYER
 10
6.9813865885
 20
3.5820485731
 11
6.9806477125
 21
3.6054514676
  0
LINE
  5
2A6
100
AcDbEntity
  8
0
100
AcDbLine
 62
7
  6
BYLAYER
 10
6.9543697672
 20
4.8955123346
 11
6.9529508664
 21
4.9403120717
  0
LINE
  5
2A7
100
AcDbEntity
  8
0
100
AcDbLine
 62
7
  6
BYLAYER
 10
6.9806477125
 20
3.6054514676
 11
6.97988316
 21
3.6313137526
  0
LINE
  5
2A8
100
AcDbEntity
  8
0
100
AcDbLine
 62
7
  6
BYLAYER
 10
6.97988316
 20
3.6313137526
 11
6.979093786
 21
3.6597321738
  0
LINE
  5
2A9
100
AcDbEntity
  8
0
100
AcDbLine
 62
7
  6
BYLAYER
 10
6.979093786
 20
3.6597321738
 11
6.9782804802
 21
3.6907882696
  0
LINE
  5
2AA
100
AcDbEntity
  8
0
100
AcDbLine
 62
7
  6
BYLAYER
 10
6.9562222649
 20
4.8275016699
 11
6.9543697672
 21
4.8955123346
  0
LINE
  5
2AB
100
AcDbEntity
  8
0
100
AcDbLine
 62
7
  6
BYLAYER
 10
6.9782804802
 20
3.6907882696
 11
6.9772314584
 21
3.7334186328
  0
LINE
  5
2AC
100
AcDbEntity
  8
0
100
AcDbLine
 62
7
  6
BYLAYER
 10
6.9772314584
 20
3.7334186328
 11
6.9761472704
 21
3.7803956967
  0
LINE
  5
2AD
100
AcDbEntity
  8
0
100
AcDbLine
 62
7
  6
BYLAYER
 10
6.9583767103
 20
4.7356935365
 11
6.9562222649
 21
4.8275016699
  0
LINE
  5
2AE
100
AcDbEntity
  8
0
100
AcDbLine
 62
7
  6
BYLAYER
 10
6.9761472704
 20
3.7803956967
 11
6.9750251534
 21
3.8319698653
  0
LINE
  5
2AF
100
AcDbEntity
  8
0
100
AcDbLine
 62
7
  6
BYLAYER
 10
6.9750251534
 20
3.8319698653
 11
6.9738610895
 21
3.8884371504
  0
LINE
  5
2B0
100
AcDbEntity
  8
0
100
AcDbLine
 62
7
  6
BYLAYER
 10
6.9738610895
 20
3.8884371504
 11
6.9726511228
 21
3.9500715557
  0
LINE
  5
2B1
100
AcDbEntity
  8
0
100
AcDbLine
 62
7
  6
BYLAYER
 10
6.9610947082
 20
4.6026601373
 11
6.9583767103
 21
4.7356935365
  0
LINE
  5
2B2
100
AcDbEntity
  8
0
100
AcDbLine
 62
7
  6
BYLAYER
 10
6.9726511228
 20
3.9500715557
 11
6.9713905683
 21
4.0171477533
  0
LINE
  5
2B3
100
AcDbEntity
  8
0
100
AcDbLine
 62
7
  6
BYLAYER
 10
6.9713905683
 20
4.0171477533
 11
6.9698042339
 21
4.1051380659
  0
LINE
  5
2B4
100
AcDbEntity
  8
0
100
AcDbLine
 62
7
  6
BYLAYER
 10
6.9698042339
 20
4.1051380659
 11
6.9681301541
 21
4.2014678488
  0
LINE
  5
2B5
100
AcDbEntity
  8
0
100
AcDbLine
 62
7
  6
BYLAYER
 10
6.9681301541
 20
4.2014678488
 11
6.9610947082
 21
4.6026601373
  0
LINE
  5
2B6
100
AcDbEntity
  8
0
100
AcDbLine
 62
7
  6
BYLAYER
 10
7.0058467762
 20
3.6673651706
 11
7.008091617
 21
3.7442297017
  0
LINE
  5
2B7
100
AcDbEntity
  8
0
100
AcDbLine
 62
7
  6
BYLAYER
 10
7.0038190653
 20
3.6045929198
 11
7.0058467762
 21
3.6673651706
  0
LINE
  5
2B8
100
AcDbEntity
  8
02___PRT_ALL_AXES
100
AcDbLine
 62
7
  6
BYLAYER
 10
7.0535714286
 20
5.1523971622
 11
7.0394707761
 21
4.7726195885
  0
LINE
  5
2B9
100
AcDbEntity
  8
0
100
AcDbLine
 62
7
  6
BYLAYER
 10
7.0019618996
 20
3.5534724907
 11
7.0038190653
 21
3.6045929198
  0
LINE
  5
2BA
100
AcDbEntity
  8
0
100
AcDbLine
 62
7
  6
BYLAYER
 10
7.0004968675
 20
3.5178938111
 11
7.0019618996
 21
3.5534724907
  0
LINE
  5
2BB
100
AcDbEntity
  8
0
100
AcDbLine
 62
7
  6
BYLAYER
 10
6.9993506352
 20
3.4931776753
 11
7.0004968675
 21
3.5178938111
  0
LINE
  5
2BC
100
AcDbEntity
  8
0
100
AcDbLine
 62
7
  6
BYLAYER
 10
6.9984689255
 20
3.4761043059
 11
6.9993506352
 21
3.4931776753
  0
LINE
  5
2BD
100
AcDbEntity
  8
0
100
AcDbLine
 62
7
  6
BYLAYER
 10
6.9978214502
 20
3.464662164
 11
6.9984689255
 21
3.4761043059
  0
LINE
  5
2BE
100
AcDbEntity
  8
0
100
AcDbLine
 62
7
  6
BYLAYER
 10
6.9971827654
 20
3.4542910529
 11
6.9978214502
 21
3.464662164
  0
LINE
  5
2BF
100
AcDbEntity
  8
0
100
AcDbLine
 62
7
  6
BYLAYER
 10
6.9965495166
 20
3.4449036054
 11
6.9971827654
 21
3.4542910529
  0
LINE
  5
2C0
100
AcDbEntity
  8
0
100
AcDbLine
 62
7
  6
BYLAYER
 10
6.9961278217
 20
3.439141085
 11
6.9965495166
 21
3.4449036054
  0
LINE
  5
2C1
100
AcDbEntity
  8
0
100
AcDbLine
 62
7
  6
BYLAYER
 10
6.9957038922
 20
3.4337342276
 11
6.9961278217
 21
3.439141085
  0
LINE
  5
2C2
100
AcDbEntity
  8
0
100
AcDbLine
 62
7
  6
BYLAYER
 10
6.9952747322
 20
3.4286448286
 11
6.9957038922
 21
3.4337342276
  0
LINE
  5
2C3
100
AcDbEntity
  8
0
100
AcDbLine
 62
7
  6
BYLAYER
 10
6.994837131
 20
3.423838888
 11
6.9952747322
 21
3.4286448286
  0
LINE
  5
2C4
100
AcDbEntity
  8
0
100
AcDbLine
 62
7
  6
BYLAYER
 10
6.9782866295
 20
3.6905484524
 11
7.1428571429
 21
3.9869535677
  0
LINE
  5
2C5
100
AcDbEntity
  8
0
100
AcDbLine
 62
7
  6
BYLAYER
 10
7.1428571429
 20
3.9869535677
 11
7.1428571429
 21
4.5728047381
  0
LINE
  5
2C6
100
AcDbEntity
  8
0
100
AcDbLine
 62
7
  6
BYLAYER
 10
6.9533717642
 20
4.927691035
 11
7.1204979864
 21
4.6266828764
  0
LINE
  5
2C7
100
AcDbEntity
  8
0
100
AcDbLine
 62
7
  6
BYLAYER
 10
7.2857142857
 20
4.8223971622
 11
7.2857142857
 21
3.7509685907
  0
LINE
  5
2C8
100
AcDbEntity
  8
0
100
AcDbLine
 62
7
  6
BYLAYER
 10
7.3214285714
 20
5.2509685907
 11
7.3214285714
 21
5.1523971622
  0
LINE
  5
2C9
100
AcDbEntity
  8
0
100
AcDbLine
 62
7
  6
BYLAYER
 10
7.3928571429
 20
4.8223971622
 11
7.3928571429
 21
3.7509685907
  0
LINE
  5
2CA
100
AcDbEntity
  8
0
100
AcDbLine
 62
7
  6
BYLAYER
 10
3.6071428571
 20
12.1344161618
 11
3.6071428571
 21
13.5442212668
  0
LINE
  5
2CB
100
AcDbEntity
  8
0
100
AcDbLine
 62
7
  6
BYLAYER
 10
3.7
 20
12.0000330014
 11
3.7
 21
13.6786044272
  0
LINE
  5
2CC
100
AcDbEntity
  8
0
100
AcDbLine
 62
7
  6
BYLAYER
 10
4.8481428571
 20
11.3036044286
 11
5.1338571429
 21
11.3036044286
  0
LINE
  5
2CD
100
AcDbEntity
  8
0
100
AcDbLine
 62
7
  6
BYLAYER
 10
4.7945714286
 20
11.3393187143
 11
4.8124285714
 21
11.3393187143
  0
LINE
  5
2CE
100
AcDbEntity
  8
0
100
AcDbLine
 62
7
  6
BYLAYER
 10
5.1695714286
 20
11.3393187143
 11
5.1874285714
 21
11.3393187143
  0
LWPOLYLINE
  5
2CF
100
AcDbEntity
  8
0
100
AcDbPolyline
 62
7
  6
BYLAYER
 90
50
 70
0
 10
6.8214285713
 20
11.8245986371
 10
6.8291324629
 20
11.8248040097
 10
6.8376805497
 20
11.8255130024
 10
6.8459835535
 20
11.8266914887
 10
6.8540255458
 20
11.828304391
 10
6.8617914595
 20
11.830318818
 10
6.8692693907
 20
11.8327032478
 10
6.8764515247
 20
11.8354244796
 10
6.8833313121
 20
11.8384501891
 10
6.889904456
 20
11.8417506176
 10
6.8961684481
 20
11.8452983717
 10
6.9021220997
 20
11.8490680797
 10
6.9077673746
 20
11.8530355492
 10
6.9131101422
 20
11.8571781276
 10
6.9181497299
 20
11.8614693781
 10
6.9228895833
 20
11.8658867527
 10
6.9273301339
 20
11.8704052661
 10
6.9314738578
 20
11.875001515
 10
6.9353266128
 20
11.8796548397
 10
6.9388985942
 20
11.8843474908
 10
6.9421915775
 20
11.889050035
 10
6.9452187883
 20
11.8937485857
 10
6.9479664049
 20
11.8983839469
 10
6.9504328344
 20
11.9029059608
 10
6.9526234742
 20
11.9072690418
 10
6.9545397346
 20
11.9114111492
 10
6.9562141001
 20
11.915333059
 10
6.9576642046
 20
11.9190061368
 10
6.9589310798
 20
11.9224693914
 10
6.9600454245
 20
11.9257527508
 10
6.961029308
 20
11.9288746008
 10
6.9619060395
 20
11.931869203
 10
6.9626849913
 20
11.9347328542
 10
6.9633791311
 20
11.937478785
 10
6.9639947575
 20
11.9400981177
 10
6.9645385129
 20
11.9425837855
 10
6.9650201273
 20
11.9449456162
 10
6.9654468702
 20
11.9471865017
 10
6.9658272028
 20
11.949320466
 10
6.9661674636
 20
11.9513555749
 10
6.9664749711
 20
11.9533114297
 10
6.9667556869
 20
11.955205812
 10
6.9670141823
 20
11.957052665
 10
6.9672547874
 20
11.958868875
 10
6.9674802619
 20
11.960663575
 10
6.9676933422
 20
11.9624486653
 10
6.9678960051
 20
11.9642324729
 10
6.9680901573
 20
11.9660249299
 10
6.9682771631
 20
11.9678329879
 10
6.9686346945
 20
11.9715265786
  0
LINE
  5
2D0
100
AcDbEntity
  8
0
100
AcDbLine
 62
7
  6
BYLAYER
 10
6.8223359871
 20
11.82460149
 11
6.8214285714
 21
11.8245986371
  0
LINE
  5
2D1
100
AcDbEntity
  8
0
100
AcDbLine
 62
7
  6
BYLAYER
 10
4.8481428571
 20
11.9502803839
 11
5.1338571429
 21
11.9502803839
  0
LINE
  5
2D2
100
AcDbEntity
  8
0
100
AcDbLine
 62
7
  6
BYLAYER
 10
6.8214285714
 20
11.8245986371
 11
6.8203539525
 21
11.8246026381
  0
LINE
  5
2D3
100
AcDbEntity
  8
0
100
AcDbLine
 62
7
  6
BYLAYER
 10
4.7945714286
 20
12.000033
 11
4.7945714286
 21
11.3393187143
  0
LINE
  5
2D4
100
AcDbEntity
  8
0
100
AcDbLine
 62
7
  6
BYLAYER
 10
4.8124285714
 20
12.0192499641
 11
4.8124285714
 21
12.000033
  0
LINE
  5
2D5
100
AcDbEntity
  8
0
100
AcDbLine
 62
7
  6
BYLAYER
 10
4.8124285714
 20
11.8993669115
 11
4.8124285714
 21
11.3393187143
  0
LINE
  5
2D6
100
AcDbEntity
  8
0
100
AcDbLine
 62
7
  6
BYLAYER
 10
4.7945714286
 20
11.9836252893
 11
5.1874285714
 21
11.9836252893
  0
LINE
  5
2D7
100
AcDbEntity
  8
0
100
AcDbLine
 62
7
  6
BYLAYER
 10
3.7
 20
12.000033
 11
5.7633214286
 21
12.000033
  0
LINE
  5
2D8
100
AcDbEntity
  8
0
100
AcDbLine
 62
7
  6
BYLAYER
 10
6.5871428571
 20
12.0136044286
 11
6.6806046354
 21
12.0136044286
  0
LINE
  5
2D9
100
AcDbEntity
  8
0
100
AcDbLine
 62
7
  6
BYLAYER
 10
4.8481428571
 20
12.027849588
 11
5.1338571429
 21
12.027849588
  0
LINE
  5
2DA
100
AcDbEntity
  8
0
100
AcDbLine
 62
7
  6
BYLAYER
 10
5.8561785714
 20
12.0629794286
 11
5.7633214286
 21
12.0629794286
  0
LINE
  5
2DB
100
AcDbEntity
  8
0
100
AcDbLine
 62
7
  6
BYLAYER
 10
3.7
 20
12.0629794286
 11
3.6785714286
 21
12.0629794286
  0
LINE
  5
2DC
100
AcDbEntity
  8
0
100
AcDbLine
 62
7
  6
BYLAYER
 10
5.991
 20
12.1049437143
 11
5.8981428571
 21
12.1049437143
  0
LINE
  5
2DD
100
AcDbEntity
  8
0
100
AcDbLine
 62
7
  6
BYLAYER
 10
5.991
 20
12.1830687143
 11
6.0655178574
 21
12.1747874643
  0
LINE
  5
2DE
100
AcDbEntity
  8
0
100
AcDbLine
 62
7
  6
BYLAYER
 10
6.5126250017
 20
12.1250999643
 11
6.5871428591
 21
12.1168187143
  0
LINE
  5
2DF
100
AcDbEntity
  8
0
100
AcDbLine
 62
7
  6
BYLAYER
 10
5.1695714286
 20
11.3393187143
 11
5.1695714286
 21
11.8993669115
  0
LINE
  5
2E0
100
AcDbEntity
  8
0
100
AcDbLine
 62
7
  6
BYLAYER
 10
5.1695714286
 20
12.000033
 11
5.1695714286
 21
12.0192499641
  0
LINE
  5
2E1
100
AcDbEntity
  8
0
100
AcDbLine
 62
7
  6
BYLAYER
 10
5.1874285714
 20
12.000033
 11
5.1874285714
 21
11.3393187143
  0
LINE
  5
2E2
100
AcDbEntity
  8
0
100
AcDbLine
 62
7
  6
BYLAYER
 10
7.2857142857
 20
12.5520877861
 11
7.1428571429
 21
12.5395894055
  0
LINE
  5
2E3
100
AcDbEntity
  8
0
100
AcDbLine
 62
7
  6
BYLAYER
 10
7.2857142857
 20
12.3036044286
 11
7.3928571429
 21
12.3036044286
  0
LINE
  5
2E4
100
AcDbEntity
  8
0
100
AcDbLine
 62
7
  6
BYLAYER
 10
7.2857142857
 20
12.750033
 11
7.114097389
 21
12.750033
  0
LINE
  5
2E5
100
AcDbEntity
  8
0
100
AcDbLine
 62
7
  6
BYLAYER
 10
7.2857142857
 20
12.9286044286
 11
7.114097389
 21
12.9286044286
  0
LINE
  5
2E6
100
AcDbEntity
  8
0
100
AcDbLine
 62
7
  6
BYLAYER
 10
5.7633214286
 20
13.6786044272
 11
5.7633214286
 21
12.0000330014
  0
LINE
  5
2E7
100
AcDbEntity
  8
0
100
AcDbLine
 62
7
  6
BYLAYER
 10
5.8561785714
 20
12.0629794286
 11
5.8561785714
 21
13.615658
  0
LINE
  5
2E8
100
AcDbEntity
  8
0
100
AcDbLine
 62
7
  6
BYLAYER
 10
5.8981428571
 20
12.1049437143
 11
5.8981428571
 21
13.5736937143
  0
LINE
  5
2E9
100
AcDbEntity
  8
0
100
AcDbLine
 62
7
  6
BYLAYER
 10
5.991
 20
13.5736937143
 11
5.991
 21
12.1049437143
  0
LINE
  5
2EA
100
AcDbEntity
  8
0
100
AcDbLine
 62
7
  6
BYLAYER
 10
6.0655178574
 20
13.5038499643
 11
6.0655178574
 21
13.397082302
  0
LINE
  5
2EB
100
AcDbEntity
  8
0
100
AcDbLine
 62
7
  6
BYLAYER
 10
6.0655178574
 20
12.2815551266
 11
6.0655178574
 21
12.1747874643
  0
LINE
  5
2EC
100
AcDbEntity
  8
0
100
AcDbLine
 62
7
  6
BYLAYER
 10
6.5036439106
 20
13.4542817592
 11
6.5126250018
 21
13.4554411537
  0
LINE
  5
2ED
100
AcDbEntity
  8
0
100
AcDbLine
 62
7
  6
BYLAYER
 10
7.2857142857
 20
13.375033
 11
7.3928571429
 21
13.375033
  0
LINE
  5
2EE
100
AcDbEntity
  8
0
100
AcDbLine
 62
7
  6
BYLAYER
 10
7.2857142857
 20
13.1265496425
 11
7.1428571429
 21
13.139048023
  0
LINE
  5
2EF
100
AcDbEntity
  8
0
100
AcDbLine
 62
7
  6
BYLAYER
 10
5.8981428571
 20
12.1049437143
 11
5.8561785714
 21
12.0629794286
  0
LINE
  5
2F0
100
AcDbEntity
  8
0
100
AcDbLine
 62
7
  6
BYLAYER
 10
5.991
 20
13.4955687143
 11
6.0655178574
 21
13.5038499643
  0
LINE
  5
2F1
100
AcDbEntity
  8
0
100
AcDbLine
 62
7
  6
BYLAYER
 10
5.991
 20
13.5736937143
 11
5.8981428571
 21
13.5736937143
  0
LINE
  5
2F2
100
AcDbEntity
  8
0
100
AcDbLine
 62
7
  6
BYLAYER
 10
5.8561785714
 20
13.615658
 11
5.7633214286
 21
13.615658
  0
LINE
  5
2F3
100
AcDbEntity
  8
0
100
AcDbLine
 62
7
  6
BYLAYER
 10
3.7
 20
13.615658
 11
3.6785714286
 21
13.615658
  0
LINE
  5
2F4
100
AcDbEntity
  8
0
100
AcDbLine
 62
7
  6
BYLAYER
 10
3.7
 20
13.6786044286
 11
5.7633214286
 21
13.6786044286
  0
LINE
  5
2F5
100
AcDbEntity
  8
0
100
AcDbLine
 62
7
  6
BYLAYER
 10
5.8981428571
 20
13.5736937143
 11
5.8561785714
 21
13.615658
  0
LWPOLYLINE
  5
2F6
100
AcDbEntity
  8
0
100
AcDbPolyline
 62
7
  6
BYLAYER
 90
48
 70
0
 10
6.6744438627
 20
11.9692016157
 10
6.6746345083
 20
11.967297277
 10
6.6748318051
 20
11.9654171206
 10
6.6750374321
 20
11.9635507571
 10
6.6752530519
 20
11.9616900204
 10
6.6754811835
 20
11.9598217407
 10
6.6757243247
 20
11.9579359395
 10
6.6759863785
 20
11.9560152603
 10
6.6762715633
 20
11.9540447733
 10
6.6765850811
 20
11.952007709
 10
6.6769332105
 20
11.9498861665
 10
6.6773223622
 20
11.9476675634
 10
6.6777603154
 20
11.9453374433
 10
6.6782560121
 20
11.9428817791
 10
6.6788199321
 20
11.9402859824
 10
6.6794636031
 20
11.9375379829
 10
6.6802009371
 20
11.9346231807
 10
6.6810447481
 20
11.9315385591
 10
6.6820109737
 20
11.9282757308
 10
6.6831123243
 20
11.9248426173
 10
6.6843625278
 20
11.9212464431
 10
6.6857784898
 20
11.9174886871
 10
6.6873760526
 20
11.9135776412
 10
6.6891771932
 20
11.9095109781
 10
6.6912046781
 20
11.9052905034
 10
6.6934792453
 20
11.9009256245
 10
6.6960266815
 20
11.8964204583
 10
6.698858519
 20
11.8918073402
 10
6.7019899856
 20
11.8871113843
 10
6.7054283931
 20
11.8823687287
 10
6.7091779082
 20
11.8776168293
 10
6.7132492163
 20
11.8728829636
 10
6.7176415354
 20
11.8682045785
 10
6.7223773487
 20
11.8635918424
 10
6.7274732342
 20
11.8590655828
 10
6.7329449733
 20
11.8546510488
 10
6.7388171557
 20
11.8503712394
 10
6.7450773564
 20
11.846278816
 10
6.75172338
 20
11.8424148234
 10
6.7587219254
 20
11.8388317571
 10
6.7660406227
 20
11.8355744757
 10
6.7736414061
 20
11.8326845358
 10
6.7814819058
 20
11.8301991206
 10
6.7895168496
 20
11.828148481
 10
6.7976962874
 20
11.8265528887
 10
6.8059683036
 20
11.8254259731
 10
6.8142663804
 20
11.8247761525
 10
6.8203539525
 20
11.8246026381
  0
LINE
  5
2F7
100
AcDbEntity
  8
0
100
AcDbLine
 62
7
  6
BYLAYER
 10
6.674078062
 20
11.973110884
 11
6.6744438627
 21
11.9692016157
  0
LINE
  5
2F8
100
AcDbEntity
  8
0
100
AcDbLine
 62
7
  6
BYLAYER
 10
6.6737267168
 20
11.9772008506
 11
6.674078062
 21
11.973110884
  0
LINE
  5
2F9
100
AcDbEntity
  8
0
100
AcDbLine
 62
7
  6
BYLAYER
 10
6.6733840941
 20
11.9815234194
 11
6.6737267168
 21
11.9772008506
  0
LINE
  5
2FA
100
AcDbEntity
  8
0
100
AcDbLine
 62
7
  6
BYLAYER
 10
6.6730458922
 20
11.986127087
 11
6.6733840941
 21
11.9815234194
  0
LINE
  5
2FB
100
AcDbEntity
  8
0
100
AcDbLine
 62
7
  6
BYLAYER
 10
6.6727090054
 20
11.9910552938
 11
6.6730458922
 21
11.986127087
  0
LINE
  5
2FC
100
AcDbEntity
  8
0
100
AcDbLine
 62
7
  6
BYLAYER
 10
6.6722011726
 20
11.9991444589
 11
6.6727090054
 21
11.9910552938
  0
LINE
  5
2FD
100
AcDbEntity
  8
0
100
AcDbLine
 62
7
  6
BYLAYER
 10
6.6716854275
 20
12.0081834264
 11
6.6722011726
 21
11.9991444589
  0
LINE
  5
2FE
100
AcDbEntity
  8
0
100
AcDbLine
 62
7
  6
BYLAYER
 10
6.6713974578
 20
12.0136044286
 11
6.6716854275
 21
12.0081834264
  0
LINE
  5
2FF
100
AcDbEntity
  8
0
100
AcDbLine
 62
7
  6
BYLAYER
 10
6.5126250017
 20
13.4623139106
 11
6.5126250017
 21
13.4554411537
  0
LINE
  5
300
100
AcDbEntity
  8
0
100
AcDbLine
 62
7
  6
BYLAYER
 10
6.5126250017
 20
12.2231962749
 11
6.5126250017
 21
12.1250999643
  0
LINE
  5
301
100
AcDbEntity
  8
0
100
AcDbLine
 62
7
  6
BYLAYER
 10
6.5871428571
 20
12.0136044286
 11
6.5871428571
 21
13.2548765737
  0
LINE
  5
302
100
AcDbEntity
  8
0
100
AcDbLine
 62
7
  6
BYLAYER
 10
6.5871428571
 20
13.3874592248
 11
6.5871428571
 21
13.4498800186
  0
LINE
  5
303
100
AcDbEntity
  8
0
100
AcDbLine
 62
7
  6
BYLAYER
 10
6.6910165654
 20
12.3719480754
 11
6.6897585039
 21
12.3145623561
  0
LINE
  5
304
100
AcDbEntity
  8
0
100
AcDbLine
 62
7
  6
BYLAYER
 10
6.6897585039
 20
12.3145623561
 11
6.6886669019
 21
12.267013422
  0
LINE
  5
305
100
AcDbEntity
  8
0
100
AcDbLine
 62
7
  6
BYLAYER
 10
6.6886669019
 20
12.267013422
 11
6.6876316749
 21
12.224164114
  0
LINE
  5
306
100
AcDbEntity
  8
0
100
AcDbLine
 62
7
  6
BYLAYER
 10
6.6876316749
 20
12.224164114
 11
6.6866474875
 21
12.1857182403
  0
LINE
  5
307
100
AcDbEntity
  8
0
100
AcDbLine
 62
7
  6
BYLAYER
 10
6.6866474875
 20
12.1857182403
 11
6.6857092999
 21
12.1513776281
  0
LINE
  5
308
100
AcDbEntity
  8
0
100
AcDbLine
 62
7
  6
BYLAYER
 10
6.6857092999
 20
12.1513776281
 11
6.6848130275
 21
12.1208755918
  0
LINE
  5
309
100
AcDbEntity
  8
0
100
AcDbLine
 62
7
  6
BYLAYER
 10
6.6848130275
 20
12.1208755918
 11
6.6841261172
 21
12.0991417171
  0
LINE
  5
30A
100
AcDbEntity
  8
0
100
AcDbLine
 62
7
  6
BYLAYER
 10
6.6841261172
 20
12.0991417171
 11
6.6834669409
 21
12.0797133633
  0
LINE
  5
30B
100
AcDbEntity
  8
0
100
AcDbLine
 62
7
  6
BYLAYER
 10
6.6834669409
 20
12.0797133633
 11
6.6828366483
 21
12.0625165451
  0
LINE
  5
30C
100
AcDbEntity
  8
0
100
AcDbLine
 62
7
  6
BYLAYER
 10
6.6828366483
 20
12.0625165451
 11
6.6822367468
 21
12.0474675668
  0
LINE
  5
30D
100
AcDbEntity
  8
0
100
AcDbLine
 62
7
  6
BYLAYER
 10
6.6822367468
 20
12.0474675668
 11
6.6816693887
 21
12.0344783197
  0
LINE
  5
30E
100
AcDbEntity
  8
0
100
AcDbLine
 62
7
  6
BYLAYER
 10
6.6816693887
 20
12.0344783197
 11
6.6811377426
 21
12.0234602581
  0
LINE
  5
30F
100
AcDbEntity
  8
0
100
AcDbLine
 62
7
  6
BYLAYER
 10
6.6811377426
 20
12.0234602581
 11
6.6807650907
 21
12.0164365278
  0
LINE
  5
310
100
AcDbEntity
  8
0
100
AcDbLine
 62
7
  6
BYLAYER
 10
6.6807650907
 20
12.0164365278
 11
6.6804175085
 21
12.0104323754
  0
LINE
  5
311
100
AcDbEntity
  8
0
100
AcDbLine
 62
7
  6
BYLAYER
 10
6.6804175085
 20
12.0104323754
 11
6.680098372
 21
12.0054116577
  0
LINE
  5
312
100
AcDbEntity
  8
0
100
AcDbLine
 62
7
  6
BYLAYER
 10
6.680098372
 20
12.0054116577
 11
6.6799038176
 21
12.0025973054
  0
LINE
  5
313
100
AcDbEntity
  8
0
100
AcDbLine
 62
7
  6
BYLAYER
 10
6.6799038176
 20
12.0025973054
 11
6.6797262265
 21
12.0002037632
  0
LINE
  5
314
100
AcDbEntity
  8
0
100
AcDbLine
 62
7
  6
BYLAYER
 10
6.6797262265
 20
12.0002037632
 11
6.6795684824
 21
11.9982305896
  0
LINE
  5
315
100
AcDbEntity
  8
0
100
AcDbLine
 62
7
  6
BYLAYER
 10
6.6795684824
 20
11.9982305896
 11
6.6794346233
 21
11.9966831386
  0
LWPOLYLINE
  5
316
100
AcDbEntity
  8
0
100
AcDbPolyline
 62
7
  6
BYLAYER
 90
3
 70
0
 10
6.6794346233
 20
11.9966831386
 10
6.6793302847
 20
11.9955733042
 10
6.6792914695
 20
11.9951875944
  0
LINE
  5
317
100
AcDbEntity
  8
0
100
AcDbLine
 62
7
  6
BYLAYER
 10
6.6792914695
 20
11.9951875944
 11
6.6792581912
 21
11.9948731021
  0
LINE
  5
318
100
AcDbEntity
  8
0
100
AcDbLine
 62
7
  6
BYLAYER
 10
6.9635666331
 20
11.9951782891
 11
6.9634835593
 21
11.9960221897
  0
LINE
  5
319
100
AcDbEntity
  8
0
100
AcDbLine
 62
7
  6
BYLAYER
 10
6.9634835593
 20
11.9960221897
 11
6.9633692649
 21
11.9972836134
  0
LINE
  5
31A
100
AcDbEntity
  8
0
100
AcDbLine
 62
7
  6
BYLAYER
 10
6.9633692649
 20
11.9972836134
 11
6.963229862
 21
11.9989482688
  0
LINE
  5
31B
100
AcDbEntity
  8
0
100
AcDbLine
 62
7
  6
BYLAYER
 10
6.963229862
 20
11.9989482688
 11
6.9630698576
 21
12.0010069846
  0
LINE
  5
31C
100
AcDbEntity
  8
0
100
AcDbLine
 62
7
  6
BYLAYER
 10
6.9630698576
 20
12.0010069846
 11
6.9628926391
 21
12.0034542582
  0
LINE
  5
31D
100
AcDbEntity
  8
0
100
AcDbLine
 62
7
  6
BYLAYER
 10
6.9628926391
 20
12.0034542582
 11
6.9626000474
 21
12.0078478419
  0
LINE
  5
31E
100
AcDbEntity
  8
0
100
AcDbLine
 62
7
  6
BYLAYER
 10
6.9626000474
 20
12.0078478419
 11
6.962280009
 21
12.0131223823
  0
LINE
  5
31F
100
AcDbEntity
  8
0
100
AcDbLine
 62
7
  6
BYLAYER
 10
6.962280009
 20
12.0131223823
 11
6.9619341219
 21
12.019340795
  0
LINE
  5
320
100
AcDbEntity
  8
0
100
AcDbLine
 62
7
  6
BYLAYER
 10
6.9619341219
 20
12.019340795
 11
6.9614324904
 21
12.0292640539
  0
LINE
  5
321
100
AcDbEntity
  8
0
100
AcDbLine
 62
7
  6
BYLAYER
 10
6.9614324904
 20
12.0292640539
 11
6.9608846048
 21
12.0412646031
  0
LINE
  5
322
100
AcDbEntity
  8
0
100
AcDbLine
 62
7
  6
BYLAYER
 10
6.9608846048
 20
12.0412646031
 11
6.960296311
 21
12.055433822
  0
LINE
  5
323
100
AcDbEntity
  8
0
100
AcDbLine
 62
7
  6
BYLAYER
 10
6.960296311
 20
12.055433822
 11
6.9596738208
 21
12.0718039131
  0
LINE
  5
324
100
AcDbEntity
  8
0
100
AcDbLine
 62
7
  6
BYLAYER
 10
6.9596738208
 20
12.0718039131
 11
6.9590201544
 21
12.0904431974
  0
LINE
  5
325
100
AcDbEntity
  8
0
100
AcDbLine
 62
7
  6
BYLAYER
 10
6.9590201544
 20
12.0904431974
 11
6.958336931
 21
12.1114305461
  0
LINE
  5
326
100
AcDbEntity
  8
0
100
AcDbLine
 62
7
  6
BYLAYER
 10
6.958336931
 20
12.1114305461
 11
6.9574433593
 21
12.1410622925
  0
LINE
  5
327
100
AcDbEntity
  8
0
100
AcDbLine
 62
7
  6
BYLAYER
 10
6.9574433593
 20
12.1410622925
 11
6.9565078173
 21
12.1745497877
  0
LINE
  5
328
100
AcDbEntity
  8
0
100
AcDbLine
 62
7
  6
BYLAYER
 10
6.9565078173
 20
12.1745497877
 11
6.9555292382
 21
12.2120476291
  0
LINE
  5
329
100
AcDbEntity
  8
0
100
AcDbLine
 62
7
  6
BYLAYER
 10
6.935299147
 20
13.1675798315
 11
6.9342409522
 21
13.2094616305
  0
LINE
  5
32A
100
AcDbEntity
  8
0
100
AcDbLine
 62
7
  6
BYLAYER
 10
6.9555292382
 20
12.2120476291
 11
6.9545027222
 21
12.2538356822
  0
LINE
  5
32B
100
AcDbEntity
  8
0
100
AcDbLine
 62
7
  6
BYLAYER
 10
6.9371721495
 20
13.0885578138
 11
6.935299147
 21
13.1675798315
  0
LINE
  5
32C
100
AcDbEntity
  8
0
100
AcDbLine
 62
7
  6
BYLAYER
 10
6.9545027222
 20
12.2538356822
 11
6.9534228421
 21
12.3002060512
  0
LINE
  5
32D
100
AcDbEntity
  8
0
100
AcDbLine
 62
7
  6
BYLAYER
 10
6.9534228421
 20
12.3002060512
 11
6.952048574
 21
12.3622891979
  0
LINE
  5
32E
100
AcDbEntity
  8
0
100
AcDbLine
 62
7
  6
BYLAYER
 10
6.9397376673
 20
12.9716771968
 11
6.9371721495
 21
13.0885578138
  0
LINE
  5
32F
100
AcDbEntity
  8
0
100
AcDbLine
 62
7
  6
BYLAYER
 10
6.952048574
 20
12.3622891979
 11
6.9505792882
 21
12.4317763731
  0
LINE
  5
330
100
AcDbEntity
  8
0
100
AcDbLine
 62
7
  6
BYLAYER
 10
6.9505792882
 20
12.4317763731
 11
6.9487305993
 21
12.5225787182
  0
LINE
  5
331
100
AcDbEntity
  8
0
100
AcDbLine
 62
7
  6
BYLAYER
 10
6.9487305993
 20
12.5225787182
 11
6.9397376673
 21
12.9716771968
  0
LINE
  5
332
100
AcDbEntity
  8
03___PRT_ALL_CURVES
100
AcDbLine
 62
7
  6
BYLAYER
 10
6.8214285714
 20
13.1965633943
 11
6.8214285714
 21
11.8245986371
  0
LINE
  5
333
100
AcDbEntity
  8
0
100
AcDbLine
 62
7
  6
BYLAYER
 10
6.963610534
 20
11.9947676711
 11
6.9636132292
 21
11.9947452545
  0
LWPOLYLINE
  5
334
100
AcDbEntity
  8
0
100
AcDbPolyline
 62
7
  6
BYLAYER
 90
3
 70
0
 10
6.9636132292
 20
11.9947452545
 10
6.9635939064
 20
11.9949195505
 10
6.9635666331
 20
11.9951782891
  0
LINE
  5
335
100
AcDbEntity
  8
0
100
AcDbLine
 62
7
  6
BYLAYER
 10
6.9770900897
 20
12.1686562161
 11
6.9791226308
 21
12.2446899978
  0
LINE
  5
336
100
AcDbEntity
  8
0
100
AcDbLine
 62
7
  6
BYLAYER
 10
6.9752166927
 20
12.1072561674
 11
6.9770900897
 21
12.1686562161
  0
LINE
  5
337
100
AcDbEntity
  8
0
100
AcDbLine
 62
7
  6
BYLAYER
 10
6.9739458444
 20
12.0709303743
 11
6.9752166927
 21
12.1072561674
  0
LINE
  5
338
100
AcDbEntity
  8
0
100
AcDbLine
 62
7
  6
BYLAYER
 10
6.9729747743
 20
12.0463049435
 11
6.9739458444
 21
12.0709303743
  0
LINE
  5
339
100
AcDbEntity
  8
0
100
AcDbLine
 62
7
  6
BYLAYER
 10
6.9720780835
 20
12.02608763
 11
6.9729747743
 21
12.0463049435
  0
LINE
  5
33A
100
AcDbEntity
  8
0
100
AcDbLine
 62
7
  6
BYLAYER
 10
6.971401607
 20
12.0124813328
 11
6.9720780835
 21
12.02608763
  0
LINE
  5
33B
100
AcDbEntity
  8
0
100
AcDbLine
 62
7
  6
BYLAYER
 10
6.9709107499
 20
12.0035055398
 11
6.971401607
 21
12.0124813328
  0
LINE
  5
33C
100
AcDbEntity
  8
0
100
AcDbLine
 62
7
  6
BYLAYER
 10
6.9704290967
 20
11.9954317188
 11
6.9709107499
 21
12.0035055398
  0
LINE
  5
33D
100
AcDbEntity
  8
0
100
AcDbLine
 62
7
  6
BYLAYER
 10
6.9699512282
 20
11.9881328208
 11
6.9704290967
 21
11.9954317188
  0
LINE
  5
33E
100
AcDbEntity
  8
0
100
AcDbLine
 62
7
  6
BYLAYER
 10
6.9696312383
 20
11.9836343946
 11
6.9699512282
 21
11.9881328208
  0
LINE
  5
33F
100
AcDbEntity
  8
0
100
AcDbLine
 62
7
  6
BYLAYER
 10
6.9693071553
 20
11.9793883381
 11
6.9696312383
 21
11.9836343946
  0
LINE
  5
340
100
AcDbEntity
  8
0
100
AcDbLine
 62
7
  6
BYLAYER
 10
6.9689762368
 20
11.9753642108
 11
6.9693071553
 21
11.9793883381
  0
LINE
  5
341
100
AcDbEntity
  8
0
100
AcDbLine
 62
7
  6
BYLAYER
 10
6.9686346945
 20
11.9715265786
 11
6.9689762368
 21
11.9753642108
  0
LINE
  5
342
100
AcDbEntity
  8
0
100
AcDbLine
 62
7
  6
BYLAYER
 10
7.1428571429
 20
12.5395894055
 11
6.9557694707
 21
12.2026290238
  0
LINE
  5
343
100
AcDbEntity
  8
0
100
AcDbLine
 62
7
  6
BYLAYER
 10
7.1428571429
 20
12.5395894055
 11
7.1428571429
 21
12.750033
  0
LINE
  5
344
100
AcDbEntity
  8
0
100
AcDbLine
 62
7
  6
BYLAYER
 10
7.1428571429
 20
12.9286044286
 11
7.1428571429
 21
13.139048023
  0
LINE
  5
345
100
AcDbEntity
  8
0
100
AcDbLine
 62
7
  6
BYLAYER
 10
7.1428571429
 20
13.139048023
 11
7.0731587593
 21
13.2645805804
  0
LINE
  5
346
100
AcDbEntity
  8
0
100
AcDbLine
 62
7
  6
BYLAYER
 10
7.2857142857
 20
12.3036044286
 11
7.2857142857
 21
13.375033
  0
LINE
  5
347
100
AcDbEntity
  8
0
100
AcDbLine
 62
7
  6
BYLAYER
 10
7.3928571429
 20
12.3036044286
 11
7.3928571429
 21
13.375033
  0
LINE
  5
348
100
AcDbEntity
  8
0
100
AcDbLine
 62
7
  6
BYLAYER
 10
15.0535714286
 20
4.466780305
 11
15.0535714286
 21
4.1096374479
  0
LINE
  5
349
100
AcDbEntity
  8
0
100
AcDbLine
 62
7
  6
BYLAYER
 10
15.0892857143
 20
4.0739231622
 11
15.105693425
 21
4.0505327034
  0
LINE
  5
34A
100
AcDbEntity
  8
0
100
AcDbLine
 62
7
  6
BYLAYER
 10
15.8392857143
 20
3.5382088764
 11
15.8960743905
 21
3.5382088764
  0
LINE
  5
34B
100
AcDbEntity
  8
0
100
AcDbLine
 62
7
  6
BYLAYER
 10
17.324919837
 20
3.5382088764
 11
17.3392857143
 21
3.5382088764
  0
LINE
  5
34C
100
AcDbEntity
  8
0
100
AcDbLine
 62
7
  6
BYLAYER
 10
15.8392857143
 20
3.5653517336
 11
15.8392857143
 21
3.5382088764
  0
LINE
  5
34D
100
AcDbEntity
  8
0
100
AcDbLine
 62
7
  6
BYLAYER
 10
15.5845941067
 20
4.4213672587
 11
15.0892857143
 21
4.0739231622
  0
LINE
  5
34E
100
AcDbEntity
  8
0
100
AcDbLine
 62
7
  6
BYLAYER
 10
15.105693425
 20
4.0505327034
 11
15.5796393724
 21
4.3829916805
  0
LINE
  5
34F
100
AcDbEntity
  8
0
100
AcDbLine
 62
7
  6
BYLAYER
 10
15.8686492172
 20
3.5653517336
 11
15.8392857143
 21
3.5653517336
  0
LINE
  5
350
100
AcDbEntity
  8
0
100
AcDbLine
 62
7
  6
BYLAYER
 10
15.5970275373
 20
4.0739231622
 11
15.1390383303
 21
4.0739231622
  0
LINE
  5
351
100
AcDbEntity
  8
02___PRT_ALL_AXES
100
AcDbLine
 62
7
  6
BYLAYER
 10
16.5
 20
5.1880291184
 11
16.5
 21
5.1896374479
  0
LINE
  5
352
100
AcDbEntity
  8
0
100
AcDbLine
 62
7
  6
BYLAYER
 10
17.6464285714
 20
4.2882088764
 11
17.3699556719
 21
4.288208851
  0
LINE
  5
353
100
AcDbEntity
  8
02___PRT_ALL_AXES
100
AcDbLine
 62
7
  6
BYLAYER
 10
16.6785714286
 20
5.1650027005
 11
16.6785714286
 21
5.1896374479
  0
LINE
  5
354
100
AcDbEntity
  8
0
100
AcDbLine
 62
7
  6
BYLAYER
 10
15.0892857143
 20
4.5024945907
 11
15.6005303727
 21
4.5024945907
  0
LINE
  5
355
100
AcDbEntity
  8
0
100
AcDbLine
 62
7
  6
BYLAYER
 10
16.9464285714
 20
5.1539231622
 11
16.9464285714
 21
5.2524945907
  0
LINE
  5
356
100
AcDbEntity
  8
0
100
AcDbLine
 62
7
  6
BYLAYER
 10
17.2270984386
 20
4.808833788
 11
17.2142857143
 21
5.1539231622
  0
LINE
  5
357
100
AcDbEntity
  8
0
100
AcDbLine
 62
7
  6
BYLAYER
 10
17.3392857143
 20
3.5382088764
 11
17.3392857143
 21
3.5520978536
  0
LINE
  5
358
100
AcDbEntity
  8
0
100
AcDbLine
 62
7
  6
BYLAYER
 10
17.9464285714
 20
5.1539231622
 11
16.9464285714
 21
5.1539231622
  0
LINE
  5
359
100
AcDbEntity
  8
0
100
AcDbLine
 62
7
  6
BYLAYER
 10
16.51
 20
5.1996374479
 11
16.6685714286
 21
5.1996374479
  0
LINE
  5
35A
100
AcDbEntity
  8
0
100
AcDbLine
 62
7
  6
BYLAYER
 10
17.9464285714
 20
5.2524945907
 11
16.9464285714
 21
5.2524945907
  0
LINE
  5
35B
100
AcDbEntity
  8
0
100
AcDbLine
 62
7
  6
BYLAYER
 10
17.6464285714
 20
4.2882088764
 11
17.6785714286
 21
5.1539231622
  0
LINE
  5
35C
100
AcDbEntity
  8
0
100
AcDbLine
 62
7
  6
BYLAYER
 10
17.9464285714
 20
5.1539231622
 11
17.9464285714
 21
5.2524945907
  0
LINE
  5
35D
100
AcDbEntity
  8
0
100
AcDbLine
 62
7
  6
BYLAYER
 10
15.889900336
 20
11.2579156107
 11
15.626740052
 21
11.2579156107
  0
LINE
  5
35E
100
AcDbEntity
  8
0
100
AcDbLine
 62
7
  6
BYLAYER
 10
15.5993986745
 20
11.2697423994
 11
15.6002668435
 21
11.2697423994
  0
LINE
  5
35F
100
AcDbEntity
  8
0
100
AcDbLine
 62
7
  6
BYLAYER
 10
15.9163485668
 20
11.2697423994
 11
15.961244065
 21
11.2697423994
  0
LINE
  5
360
100
AcDbEntity
  8
0
100
AcDbLine
 62
7
  6
BYLAYER
 10
15.5882918511
 20
11.2714295404
 11
15.5988944247
 21
11.2714295404
  0
LINE
  5
361
100
AcDbEntity
  8
0
100
AcDbLine
 62
7
  6
BYLAYER
 10
15.9177288135
 20
11.2714295404
 11
15.9501372416
 21
11.2714295404
  0
LINE
  5
362
100
AcDbEntity
  8
0
100
AcDbLine
 62
7
  6
BYLAYER
 10
15.5882918511
 20
11.2714295404
 11
15.5993986745
 21
11.2697423994
  0
LINE
  5
363
100
AcDbEntity
  8
0
100
AcDbLine
 62
7
  6
BYLAYER
 10
15.9501372416
 20
11.2714295404
 11
15.961244065
 21
11.2697423994
  0
LINE
  5
364
100
AcDbEntity
  8
0
100
AcDbLine
 62
7
  6
BYLAYER
 10
15.5946782072
 20
11.2778962282
 11
15.4857346834
 21
11.4998997883
  0
LWPOLYLINE
  5
365
100
AcDbEntity
  8
0
100
AcDbPolyline
 62
7
  6
BYLAYER
 90
30
 70
0
 10
17.7580040888
 20
11.560306027
 10
17.773476944
 20
11.5607183608
 10
17.7911477293
 20
11.5621987905
 10
17.8086518222
 20
11.564730803
 10
17.8260278977
 20
11.5683058305
 10
17.843277646
 20
11.572921817
 10
17.8604570144
 20
11.578604167
 10
17.8776200072
 20
11.5853955063
 10
17.8947755913
 20
11.5933360739
 10
17.9119489377
 20
11.6024870506
 10
17.9291457174
 20
11.6129146566
 10
17.9463789113
 20
11.6247036706
 10
17.9636546294
 20
11.6379494485
 10
17.9810775905
 20
11.6528486854
 10
17.9983586578
 20
11.6692610947
 10
18.0153014767
 20
11.6870514461
 10
18.0318445615
 20
11.7061751781
 10
18.0478788911
 20
11.7265028048
 10
18.0634153006
 20
11.7480297611
 10
18.0784345464
 20
11.7707094604
 10
18.0929223453
 20
11.7944927233
 10
18.1068602767
 20
11.8193149952
 10
18.1202402913
 20
11.8451218884
 10
18.1330484726
 20
11.87184093
 10
18.1452837236
 20
11.8994195857
 10
18.1569414205
 20
11.9277942689
 10
18.1680158235
 20
11.956893128
 10
18.1784995903
 20
11.9866324125
 10
18.1883961028
 20
12.0169522572
 10
18.1965363445
 20
12.0439077552
  0
LINE
  5
366
100
AcDbEntity
  8
0
100
AcDbLine
 62
7
  6
BYLAYER
 10
15.9990639015
 20
11.5259193825
 11
16.7062902136
 21
11.5259193825
  0
LINE
  5
367
100
AcDbEntity
  8
0
100
AcDbLine
 62
7
  6
BYLAYER
 10
16.0042778274
 20
11.542791653
 11
16.6980105058
 21
11.542791653
  0
LINE
  5
368
100
AcDbEntity
  8
03___PRT_ALL_CURVES
100
AcDbLine
 62
7
  6
BYLAYER
 10
17.7575847835
 20
11.5603066259
 11
17.7580339458
 21
11.560306027
  0
LINE
  5
369
100
AcDbEntity
  8
0
100
AcDbLine
 62
7
  6
BYLAYER
 10
14.8778581739
 20
11.7403363266
 11
15.5498542818
 21
11.7403363266
  0
LINE
  5
36A
100
AcDbEntity
  8
0
100
AcDbLine
 62
7
  6
BYLAYER
 10
16.0653237487
 20
11.7403363266
 11
16.7783030599
 21
11.7403363266
  0
LINE
  5
36B
100
AcDbEntity
  8
0
100
AcDbLine
 62
7
  6
BYLAYER
 10
15.6063894771
 20
12.0570762331
 11
15.6030592969
 21
11.9125078184
  0
LINE
  5
36C
100
AcDbEntity
  8
0
100
AcDbLine
 62
7
  6
BYLAYER
 10
15.5887204756
 20
11.2900368089
 11
15.5882918511
 21
11.2714295404
  0
LINE
  5
36D
100
AcDbEntity
  8
0
100
AcDbLine
 62
7
  6
BYLAYER
 10
16.8638301522
 20
11.8032827552
 11
16.7783030599
 21
11.8032827552
  0
LINE
  5
36E
100
AcDbEntity
  8
0
100
AcDbLine
 62
7
  6
BYLAYER
 10
16.9880089112
 20
11.8452470409
 11
16.9024818189
 21
11.8452470409
  0
LINE
  5
36F
100
AcDbEntity
  8
0
100
AcDbLine
 62
7
  6
BYLAYER
 10
15.6547954209
 20
12.0164165291
 11
15.9179557049
 21
12.0164165291
  0
LINE
  5
370
100
AcDbEntity
  8
0
100
AcDbLine
 62
7
  6
BYLAYER
 10
18.1805197381
 20
12.0439077552
 11
18.2792048446
 21
12.0439077552
  0
LINE
  5
371
100
AcDbEntity
  8
0
100
AcDbLine
 62
7
  6
BYLAYER
 10
15.6063894771
 20
12.0570762331
 11
15.9682348676
 21
12.0570762331
  0
LINE
  5
372
100
AcDbEntity
  8
0
100
AcDbLine
 62
7
  6
BYLAYER
 10
15.673572313
 20
12.077178574
 11
15.936732597
 21
12.077178574
  0
LINE
  5
373
100
AcDbEntity
  8
0
100
AcDbLine
 62
7
  6
BYLAYER
 10
16.9760015031
 20
11.9240968211
 11
17.3684426336
 21
11.8766942852
  0
LINE
  5
374
100
AcDbEntity
  8
0
100
AcDbLine
 62
7
  6
BYLAYER
 10
15.979341691
 20
12.0553890921
 11
15.9682348676
 21
12.0570762331
  0
LINE
  5
375
100
AcDbEntity
  8
0
100
AcDbLine
 62
7
  6
BYLAYER
 10
15.9494206557
 20
11.9543342801
 11
15.9351198086
 21
11.3335117895
  0
LINE
  5
376
100
AcDbEntity
  8
0
100
AcDbLine
 62
7
  6
BYLAYER
 10
15.9682348676
 20
12.0570762331
 11
15.9501372416
 21
11.2714295404
  0
LINE
  5
377
100
AcDbEntity
  8
0
100
AcDbLine
 62
7
  6
BYLAYER
 10
15.961244065
 20
11.2697423994
 11
15.979341691
 21
12.0553890921
  0
LINE
  5
378
100
AcDbEntity
  8
0
100
AcDbLine
 62
7
  6
BYLAYER
 10
15.6492016435
 20
12.0618245067
 11
15.6477343159
 21
12.0570762331
  0
LINE
  5
379
100
AcDbEntity
  8
0
100
AcDbLine
 62
7
  6
BYLAYER
 10
15.6250969266
 20
11.9838216142
 11
15.4836743552
 21
11.5261780055
  0
LINE
  5
37A
100
AcDbEntity
  8
0
100
AcDbLine
 62
7
  6
BYLAYER
 10
16.6980105058
 20
11.542791653
 11
16.7062902136
 21
11.5259193825
  0
LINE
  5
37B
100
AcDbEntity
  8
0
100
AcDbLine
 62
7
  6
BYLAYER
 10
16.0895497973
 20
11.8187318486
 11
15.9645742453
 21
11.4143108141
  0
LINE
  5
37C
100
AcDbEntity
  8
0
100
AcDbLine
 62
7
  6
BYLAYER
 10
15.9304931827
 20
11.3040244553
 11
15.924022509
 21
11.2830853474
  0
LINE
  5
37D
100
AcDbEntity
  8
0
100
AcDbLine
 62
7
  6
BYLAYER
 10
17.9793350296
 20
12.7210295275
 11
17.8971228095
 21
12.7210295275
  0
LWPOLYLINE
  5
37E
100
AcDbEntity
  8
0
100
AcDbPolyline
 62
7
  6
BYLAYER
 90
15
 70
0
 10
17.7436375228
 20
11.8721424677
 10
17.7420048698
 20
11.8732792655
 10
17.7385624985
 20
11.8758700526
 10
17.7346402753
 20
11.8791125403
 10
17.7302758295
 20
11.8830522739
 10
17.7255041261
 20
11.8877316998
 10
17.7203686742
 20
11.8931791885
 10
17.714909885
 20
11.8994194533
 10
17.7091719385
 20
11.9064660114
 10
17.7031947221
 20
11.9143302587
 10
17.6970228783
 20
11.923009859
 10
17.6906980592
 20
11.9324983214
 10
17.6842538706
 20
11.9427941787
 10
17.6777268796
 20
11.9538845023
 10
17.6714783559
 20
11.9651453881
  0
LINE
  5
37F
100
AcDbEntity
  8
0
100
AcDbLine
 62
7
  6
BYLAYER
 10
18.0030008246
 20
12.8609093328
 11
17.9403489386
 21
12.8609093328
  0
LINE
  5
380
100
AcDbEntity
  8
0
100
AcDbLine
 62
7
  6
BYLAYER
 10
17.976052402
 20
12.6853757879
 11
17.9400473848
 21
12.6875383396
  0
LINE
  5
381
100
AcDbEntity
  8
0
100
AcDbLine
 62
7
  6
BYLAYER
 10
16.8952212623
 20
11.8075428914
 11
16.89572208
 21
11.7963700255
  0
LINE
  5
382
100
AcDbEntity
  8
0
100
AcDbLine
 62
7
  6
BYLAYER
 10
16.9760015031
 20
13.2351472607
 11
17.3684745119
 21
13.2825536471
  0
LINE
  5
383
100
AcDbEntity
  8
0
100
AcDbLine
 62
7
  6
BYLAYER
 10
18.1805197381
 20
13.1153363266
 11
18.2792048446
 21
13.1153363266
  0
LWPOLYLINE
  5
384
100
AcDbEntity
  8
0
100
AcDbPolyline
 62
7
  6
BYLAYER
 90
23
 70
0
 10
17.4116629764
 20
11.8352864567
 10
17.4246299565
 20
11.8092617243
 10
17.4383289956
 20
11.7840548662
 10
17.4522963278
 20
11.7605231334
 10
17.4665312802
 20
11.738572544
 10
17.4810338421
 20
11.718123579
 10
17.4958094212
 20
11.6991006794
 10
17.5108746367
 20
11.6814268458
 10
17.5262232689
 20
11.6650629398
 10
17.5418569999
 20
11.6499664135
 10
17.5577642331
 20
11.6361124066
 10
17.5739243525
 20
11.6234846352
 10
17.5903412166
 20
11.6120496467
 10
17.6070205829
 20
11.6017768731
 10
17.6239131091
 20
11.5926703508
 10
17.6409723173
 20
11.5847257365
 10
17.6581462729
 20
11.5779360175
 10
17.6753657483
 20
11.5722942386
 10
17.6925979108
 20
11.5677732369
 10
17.7098104418
 20
11.5643431379
 10
17.7269175116
 20
11.5619813023
 10
17.7438306197
 20
11.5606541023
 10
17.7580345757
 20
11.5603060271
  0
LINE
  5
385
100
AcDbEntity
  8
0
100
AcDbLine
 62
7
  6
BYLAYER
 10
16.7590564271
 20
11.7403363266
 11
16.6980105058
 21
11.542791653
  0
LINE
  5
386
100
AcDbEntity
  8
0
100
AcDbLine
 62
7
  6
BYLAYER
 10
16.7062902136
 20
11.5259193825
 11
16.7725500608
 21
11.7403363266
  0
LWPOLYLINE
  5
387
100
AcDbEntity
  8
0
100
AcDbPolyline
 62
7
  6
BYLAYER
 90
3
 70
0
 10
17.4605808581
 20
13.2100838983
 10
17.4579738357
 20
13.2058550054
 10
17.4569372887
 20
13.2040878903
  0
LINE
  5
388
100
AcDbEntity
  8
0
100
AcDbLine
 62
7
  6
BYLAYER
 10
16.9880089112
 20
13.3139970409
 11
16.9024818189
 21
13.3139970409
  0
LINE
  5
389
100
AcDbEntity
  8
0
100
AcDbLine
 62
7
  6
BYLAYER
 10
16.8638301522
 20
13.3559613266
 11
16.7783030599
 21
13.3559613266
  0
LINE
  5
38A
100
AcDbEntity
  8
0
100
AcDbLine
 62
7
  6
BYLAYER
 10
17.6687815196
 20
13.4053363266
 11
17.6965285368
 21
13.4053363266
  0
LINE
  5
38B
100
AcDbEntity
  8
0
100
AcDbLine
 62
7
  6
BYLAYER
 10
14.8778581739
 20
13.4189077552
 11
16.7783030599
 21
13.4189077552
  0
LWPOLYLINE
  5
38C
100
AcDbEntity
  8
0
100
AcDbPolyline
 62
7
  6
BYLAYER
 90
51
 70
0
 10
17.6714778416
 20
11.9651463414
 10
17.6656326816
 20
11.9763321067
 10
17.6594451847
 20
11.9889603553
 10
17.6532251169
 20
12.002515873
 10
17.6470096538
 20
12.0169794683
 10
17.6408311775
 20
12.0323344902
 10
17.6347199214
 20
12.048562238
 10
17.6287050702
 20
12.065639465
 10
17.6228135372
 20
12.0835419563
 10
17.6170711887
 20
12.1022413986
 10
17.6115019668
 20
12.1217082723
 10
17.6061287047
 20
12.1419094573
 10
17.6009724117
 20
12.1628109806
 10
17.5960529874
 20
12.1843755897
 10
17.5913885893
 20
12.2065655691
 10
17.586996301
 20
12.2293400404
 10
17.5828914009
 20
12.2526588273
 10
17.5790881084
 20
12.2764790186
 10
17.5755991353
 20
12.3007577052
 10
17.5724360566
 20
12.3254499757
 10
17.5696090908
 20
12.3505106056
 10
17.5671273348
 20
12.3758922779
 10
17.5649983676
 20
12.4015498648
 10
17.5632287543
 20
12.4274359744
 10
17.5618237311
 20
12.4535053943
 10
17.5607875212
 20
12.4797116246
 10
17.5601232539
 20
12.506008161
 10
17.5598329917
 20
12.5323481303
 10
17.5599177227
 20
12.5586845888
 10
17.5603773626
 20
12.5849704899
 10
17.5612107616
 20
12.6111591433
 10
17.5624157082
 20
12.6372040152
 10
17.5639889291
 20
12.6630588765
 10
17.5659261214
 20
12.6886783025
 10
17.5682218105
 20
12.7140160302
 10
17.5708695892
 20
12.7390280864
 10
17.573861394
 20
12.7636663061
 10
17.5771881016
 20
12.7878852613
 10
17.5808391242
 20
12.8116390294
 10
17.5848026887
 20
12.8348836382
 10
17.5890657014
 20
12.8575762351
 10
17.5936135277
 20
12.8796743283
 10
17.5984315503
 20
12.9011430864
 10
17.6035035792
 20
12.9219469476
 10
17.6088132126
 20
12.9420555574
 10
17.6143429834
 20
12.9614397849
 10
17.6200736991
 20
12.9800699347
 10
17.6259860141
 20
12.9979212814
 10
17.6320558016
 20
13.0149606884
 10
17.6382600611
 20
13.0311652128
 10
17.6450129449
 20
13.0475397069
  0
LINE
  5
38D
100
AcDbEntity
  8
0
100
AcDbLine
 62
7
  6
BYLAYER
 10
17.0318249963
 20
11.9181542124
 11
17.1582704754
 21
12.3273319327
  0
LWPOLYLINE
  5
38E
100
AcDbEntity
  8
0
100
AcDbPolyline
 62
7
  6
BYLAYER
 90
45
 70
0
 10
17.4014667461
 20
13.0930635799
 10
17.4005782216
 20
13.0909806891
 10
17.3905267912
 20
13.0655102486
 10
17.381023035
 20
13.0394849878
 10
17.37204366
 20
13.0129102576
 10
17.3635842661
 20
12.985837279
 10
17.3556282271
 20
12.9582732418
 10
17.3481641666
 20
12.9302312712
 10
17.3411847615
 20
12.9017304061
 10
17.3346820928
 20
12.8727784714
 10
17.3286564945
 20
12.8434131168
 10
17.3231064308
 20
12.8136617036
 10
17.31803274
 20
12.7835623635
 10
17.3134357603
 20
12.753150895
 10
17.309315827
 20
12.7224632218
 10
17.3056733816
 20
12.6915366945
 10
17.3025082105
 20
12.6604034032
 10
17.2998203841
 20
12.6290971024
 10
17.2976098978
 20
12.5976499241
 10
17.2958768682
 20
12.566094231
 10
17.2946215103
 20
12.5344628549
 10
17.2938440692
 20
12.5027876615
 10
17.2935448983
 20
12.471103851
 10
17.2937242682
 20
12.4394454155
 10
17.294382387
 20
12.4078477979
 10
17.295519359
 20
12.3763464466
 10
17.2971352996
 20
12.3449750067
 10
17.2992301137
 20
12.3137702875
 10
17.3018045852
 20
12.2827577002
 10
17.3048596409
 20
12.2519668825
 10
17.3083971974
 20
12.221422498
 10
17.3124196778
 20
12.1911510719
 10
17.3169303537
 20
12.1611784036
 10
17.3219332053
 20
12.1315313413
 10
17.3274333909
 20
12.1022355594
 10
17.3334370469
 20
12.0733177292
 10
17.3399517702
 20
12.0448039475
 10
17.3469863985
 20
12.0167217529
 10
17.3545522054
 20
11.989096426
 10
17.3626624062
 20
11.9619546637
 10
17.3713328466
 20
11.9353234301
 10
17.3805819922
 20
11.9092314816
 10
17.3904335205
 20
11.8837040663
 10
17.4009204982
 20
11.858756938
 10
17.4116636163
 20
11.8352851163
  0
LWPOLYLINE
  5
38F
100
AcDbEntity
  8
0
100
AcDbPolyline
 62
7
  6
BYLAYER
 90
3
 70
0
 10
17.7827067827
 20
13.3827008299
 10
17.7791027275
 20
13.3836038916
 10
17.7693116098
 20
13.3857525129
  0
LINE
  5
390
100
AcDbEntity
  8
02___PRT_ALL_AXES
100
AcDbLine
 62
7
  6
BYLAYER
 10
17.4065491267
 20
13.0827067771
 11
17.3977562107
 21
13.1006248561
  0
LINE
  5
391
100
AcDbEntity
  8
0
100
AcDbLine
 62
7
  6
BYLAYER
 10
17.2173563557
 20
13.6301833641
 11
17.2474247683
 21
13.5689103815
  0
LINE
  5
392
100
AcDbEntity
  8
02___PRT_ALL_AXES
100
AcDbLine
 62
7
  6
BYLAYER
 10
17.5710572062
 20
13.1528187497
 11
17.5580654345
 21
13.179293197
  0
LINE
  5
393
100
AcDbEntity
  8
0
100
AcDbLine
 62
7
  6
BYLAYER
 10
18.046892537
 20
12.1110309862
 11
18.0583146586
 21
12.1454893929
  0
LINE
  5
394
100
AcDbEntity
  8
0
100
AcDbLine
 62
7
  6
BYLAYER
 10
18.0530372815
 20
13.0296755495
 11
18.0583324742
 21
13.0137009426
  0
LINE
  5
395
100
AcDbEntity
  8
0
100
AcDbLine
 62
7
  6
BYLAYER
 10
18.1528869174
 20
13.310731662
 11
18.1420134339
 21
13.3346103444
  0
LINE
  5
396
100
AcDbEntity
  8
02___PRT_ALL_AXES
100
AcDbLine
 62
7
  6
BYLAYER
 10
18.0326261956
 20
13.5914765362
 11
18.1422410128
 21
13.3340759372
  0
LWPOLYLINE
  5
397
100
AcDbEntity
  8
0
100
AcDbPolyline
 62
7
  6
BYLAYER
 90
8
 70
0
 10
18.2177881523
 20
13.1153363266
 10
18.2140484869
 20
13.1304018629
 10
18.2055586941
 20
13.1616775283
 10
18.1964272736
 20
13.1924988794
 10
18.1866286992
 20
13.2228395008
 10
18.1761333537
 20
13.2526708988
 10
18.1649033287
 20
13.2819711364
 10
18.1528869174
 20
13.310731662
  0
LINE
  5
398
100
AcDbEntity
  8
0
100
AcDbLine
 62
7
  6
BYLAYER
 10
18.1150880092
 20
14.070726073
 11
18.1451564218
 21
14.0094530904
  0
ARC
  5
399
100
AcDbEntity
  8
0
100
AcDbCircle
 62
7
  6
BYLAYER
 10
-2.7611376821
 20
-0.6792598903
 40
11.2104101778
100
AcDbArc
 50
27.9368997244
 51
28.2490435555
  0
ARC
  5
39A
100
AcDbEntity
  8
0
100
AcDbCircle
 62
7
  6
BYLAYER
 10
3.6785714286
 20
3.5817721622
 40
0.0714285714
100
AcDbArc
 50
180.0
 51
187.5418309978
  0
ARC
  5
39B
100
AcDbEntity
  8
0
100
AcDbCircle
 62
7
  6
BYLAYER
 10
3.6785714286
 20
4.9915935907
 40
0.0714285714
100
AcDbArc
 50
90.0
 51
180.0
  0
ARC
  5
39C
100
AcDbEntity
  8
0
100
AcDbCircle
 62
7
  6
BYLAYER
 10
4.8481428571
 20
4.465254305
 40
0.0357142857
100
AcDbArc
 50
90.0
 51
180.0
  0
ARC
  5
39D
100
AcDbEntity
  8
0
100
AcDbCircle
 62
7
  6
BYLAYER
 10
5.1338571429
 20
4.465254305
 40
0.0357142857
100
AcDbArc
 50
0.0
 51
90.0
  0
ARC
  5
39E
100
AcDbEntity
  8
0
100
AcDbCircle
 62
7
  6
BYLAYER
 10
4.8481428571
 20
4.1081114479
 40
0.0357142857
100
AcDbArc
 50
180.0
 51
270.0
  0
ARC
  5
39F
100
AcDbEntity
  8
0
100
AcDbCircle
 62
7
  6
BYLAYER
 10
5.1338571429
 20
4.1081114479
 40
0.0357142857
100
AcDbArc
 50
270.0
 51
360.0
  0
ARC
  5
3A0
100
AcDbEntity
  8
0
100
AcDbCircle
 62
7
  6
BYLAYER
 10
6.9007142857
 20
5.1881114479
 40
0.01
100
AcDbArc
 50
0.0
 51
90.0
  0
ARC
  5
3A1
100
AcDbEntity
  8
0
100
AcDbCircle
 62
7
  6
BYLAYER
 10
6.7421428571
 20
5.1881114479
 40
0.01
100
AcDbArc
 50
90.0
 51
180.0
  0
ARC
  5
3A2
100
AcDbEntity
  8
0
100
AcDbCircle
 62
7
  6
BYLAYER
 10
3.6785714286
 20
12.134408
 40
0.0714285714
100
AcDbArc
 50
180.0
 51
270.0
  0
ARC
  5
3A3
100
AcDbEntity
  8
0
100
AcDbCircle
 62
7
  6
BYLAYER
 10
5.1338571429
 20
11.3393187143
 40
0.0357142857
100
AcDbArc
 50
270.0
 51
360.0
  0
ARC
  5
3A4
100
AcDbEntity
  8
0
100
AcDbCircle
 62
7
  6
BYLAYER
 10
4.8481428571
 20
11.3393187143
 40
0.0357142857
100
AcDbArc
 50
180.0
 51
270.0
  0
ARC
  5
3A5
100
AcDbEntity
  8
0
100
AcDbCircle
 62
7
  6
BYLAYER
 10
3.6785714286
 20
13.5442294286
 40
0.0714285714
100
AcDbArc
 50
90.0
 51
180.0
  0
CIRCLE
  5
3A6
100
AcDbEntity
  8
0
100
AcDbCircle
 62
7
  6
BYLAYER
 10
6.8214285714
 20
13.6964615714
 40
0.5
  0
CIRCLE
  5
3A7
100
AcDbEntity
  8
03___PRT_ALL_CURVES
100
AcDbCircle
 62
7
  6
BYLAYER
 10
6.8214285714
 20
13.6964615714
 40
0.3928571429
  0
CIRCLE
  5
3A8
100
AcDbEntity
  8
0
100
AcDbCircle
 62
7
  6
BYLAYER
 10
6.8214285714
 20
13.6964615714
 40
0.1785714286
  0
CIRCLE
  5
3A9
100
AcDbEntity
  8
0
100
AcDbCircle
 62
7
  6
BYLAYER
 10
6.8214285714
 20
13.6964615714
 40
0.1427687412
  0
CIRCLE
  5
3AA
100
AcDbEntity
  8
0
100
AcDbCircle
 62
7
  6
BYLAYER
 10
6.8214285714
 20
12.8393187143
 40
0.0892857143
  0
CIRCLE
  5
3AB
100
AcDbEntity
  8
02___PRT_ALL_AXES
100
AcDbCircle
 62
7
  6
BYLAYER
 10
7.0992205212
 20
13.4186696217
 40
0.0535714286
  0
CIRCLE
  5
3AC
100
AcDbEntity
  8
02___PRT_ALL_AXES
100
AcDbCircle
 62
7
  6
BYLAYER
 10
6.5436366217
 20
13.4186696217
 40
0.0535714286
  0
CIRCLE
  5
3AD
100
AcDbEntity
  8
02___PRT_ALL_AXES
100
AcDbCircle
 62
7
  6
BYLAYER
 10
6.5436366217
 20
13.9742535212
 40
0.0535714286
  0
CIRCLE
  5
3AE
100
AcDbEntity
  8
02___PRT_ALL_AXES
100
AcDbCircle
 62
7
  6
BYLAYER
 10
7.0992205212
 20
13.9742535212
 40
0.0535714286
  0
CIRCLE
  5
3AF
100
AcDbEntity
  8
0
100
AcDbCircle
 62
7
  6
BYLAYER
 10
6.8214285714
 20
12.8393187143
 40
0.0351142857
  0
CIRCLE
  5
3B0
100
AcDbEntity
  8
02___PRT_ALL_AXES
100
AcDbCircle
 62
7
  6
BYLAYER
 10
7.1695714286
 20
12.8393187143
 40
0.0351142857
  0
CIRCLE
  5
3B1
100
AcDbEntity
  8
0
100
AcDbCircle
 62
7
  6
BYLAYER
 10
6.8214285714
 20
12.8393187143
 40
0.0333799407
  0
CIRCLE
  5
3B2
100
AcDbEntity
  8
02___PRT_ALL_AXES
100
AcDbCircle
 62
7
  6
BYLAYER
 10
7.1695714286
 20
12.8393187143
 40
0.0333799407
  0
ARC
  5
3B3
100
AcDbEntity
  8
0
100
AcDbCircle
 62
7
  6
BYLAYER
 10
22.253403593
 20
-108.9105611589
 40
123.3742570131
100
AcDbArc
 50
97.3863994769
 51
97.5394955041
  0
ARC
  5
3B4
100
AcDbEntity
  8
0
100
AcDbCircle
 62
7
  6
BYLAYER
 10
22.8730842517
 20
139.308176023
 40
128.1337453774
100
AcDbArc
 50
262.4626740048
 51
262.6642966451
  0
ARC
  5
3B5
100
AcDbEntity
  8
0
100
AcDbCircle
 62
7
  6
BYLAYER
 10
16.6104971042
 20
4.2882088764
 40
1.0359314672
100
AcDbArc
 50
180.0
 51
360.0
  0
ARC
  5
3B6
100
AcDbEntity
  8
03___PRT_ALL_CURVES
100
AcDbCircle
 62
7
  6
BYLAYER
 10
16.6104971042
 20
4.2882088764
 40
1.0359314672
100
AcDbArc
 50
180.0
 51
360.0
  0
ARC
  5
3B7
100
AcDbEntity
  8
0
100
AcDbCircle
 62
7
  6
BYLAYER
 10
16.4747398724
 20
4.2882080109
 40
0.9001756667
100
AcDbArc
 50
45.0946165798
 51
76.9127060819
  0
ARC
  5
3B8
100
AcDbEntity
  8
02___PRT_ALL_AXES
100
AcDbCircle
 62
7
  6
BYLAYER
 10
16.4747403521
 20
4.2882088764
 40
0.900174715
100
AcDbArc
 50
88.392021912
 51
179.9999999994
  0
ARC
  5
3B9
100
AcDbEntity
  8
03___PRT_ALL_CURVES
100
AcDbCircle
 62
7
  6
BYLAYER
 10
16.4747403521
 20
4.2882088764
 40
0.900174715
100
AcDbArc
 50
45.0945785775
 51
76.9126906811
  0
ARC
  5
3BA
100
AcDbEntity
  8
03___PRT_ALL_CURVES
100
AcDbCircle
 62
7
  6
BYLAYER
 10
16.4747403521
 20
4.2882088764
 40
0.900174715
100
AcDbArc
 50
88.3920142596
 51
180.0
  0
ARC
  5
3BB
100
AcDbEntity
  8
0
100
AcDbCircle
 62
7
  6
BYLAYER
 10
16.5892857143
 20
4.2882088764
 40
0.8392857143
100
AcDbArc
 50
40.6006626452
 51
60.8473722354
  0
ARC
  5
3BC
100
AcDbEntity
  8
0
100
AcDbCircle
 62
7
  6
BYLAYER
 10
16.5892857143
 20
4.2882088764
 40
0.8257142857
100
AcDbArc
 50
39.4419701298
 51
52.3935656903
  0
CIRCLE
  5
3BD
100
AcDbEntity
  8
0
100
AcDbCircle
 62
7
  6
BYLAYER
 10
16.5892857143
 20
4.2882088764
 40
0.5357142857
  0
ARC
  5
3BE
100
AcDbEntity
  8
03___PRT_ALL_CURVES
100
AcDbCircle
 62
7
  6
BYLAYER
 10
16.5892857143
 20
4.2882088764
 40
0.4285714286
100
AcDbArc
 50
217.834477767
 51
232.1654559316
  0
ARC
  5
3BF
100
AcDbEntity
  8
03___PRT_ALL_CURVES
100
AcDbCircle
 62
7
  6
BYLAYER
 10
16.5892857143
 20
4.2882088764
 40
0.4285714286
100
AcDbArc
 50
307.8345440684
 51
322.165522233
  0
ARC
  5
3C0
100
AcDbEntity
  8
03___PRT_ALL_CURVES
100
AcDbCircle
 62
7
  6
BYLAYER
 10
16.5892857143
 20
4.2882088764
 40
0.4285714286
100
AcDbArc
 50
37.834477767
 51
52.1654559316
  0
ARC
  5
3C1
100
AcDbEntity
  8
03___PRT_ALL_CURVES
100
AcDbCircle
 62
7
  6
BYLAYER
 10
16.5892857143
 20
4.2882088764
 40
0.4285714286
100
AcDbArc
 50
127.8345440684
 51
142.165522233
  0
CIRCLE
  5
3C2
100
AcDbEntity
  8
0
100
AcDbCircle
 62
7
  6
BYLAYER
 10
16.5892857143
 20
4.2882088764
 40
0.2142857143
  0
CIRCLE
  5
3C3
100
AcDbEntity
  8
02___PRT_ALL_AXES
100
AcDbCircle
 62
7
  6
BYLAYER
 10
16.8923314777
 20
4.5912546398
 40
0.0535714286
  0
CIRCLE
  5
3C4
100
AcDbEntity
  8
02___PRT_ALL_AXES
100
AcDbCircle
 62
7
  6
BYLAYER
 10
16.2862399509
 20
4.5912546398
 40
0.0535714286
  0
CIRCLE
  5
3C5
100
AcDbEntity
  8
02___PRT_ALL_AXES
100
AcDbCircle
 62
7
  6
BYLAYER
 10
16.2862399509
 20
3.9851631131
 40
0.0535714286
  0
CIRCLE
  5
3C6
100
AcDbEntity
  8
02___PRT_ALL_AXES
100
AcDbCircle
 62
7
  6
BYLAYER
 10
16.8923314777
 20
3.9851631131
 40
0.0535714286
  0
ARC
  5
3C7
100
AcDbEntity
  8
0
100
AcDbCircle
 62
7
  6
BYLAYER
 10
15.0892857143
 20
4.466780305
 40
0.0357142857
100
AcDbArc
 50
90.0
 51
180.0
  0
ARC
  5
3C8
100
AcDbEntity
  8
0
100
AcDbCircle
 62
7
  6
BYLAYER
 10
15.0892857143
 20
4.1096374479
 40
0.0357142857
100
AcDbArc
 50
180.0
 51
270.0
  0
ARC
  5
3C9
100
AcDbEntity
  8
0
100
AcDbCircle
 62
7
  6
BYLAYER
 10
16.51
 20
5.1896374479
 40
0.01
100
AcDbArc
 50
90.0
 51
180.0
  0
ARC
  5
3CA
100
AcDbEntity
  8
0
100
AcDbCircle
 62
7
  6
BYLAYER
 10
16.6685714286
 20
5.1896374479
 40
0.01
100
AcDbArc
 50
0.0
 51
90.0
  0
ARC
  5
3CB
100
AcDbEntity
  8
0
100
AcDbCircle
 62
7
  6
BYLAYER
 10
30.8821317394
 20
133.0216483846
 40
121.4720718168
100
AcDbArc
 50
263.3482196209
 51
263.5370350327
  0
ARC
  5
3CC
100
AcDbEntity
  8
0
100
AcDbCircle
 62
7
  6
BYLAYER
 10
30.8352850916
 20
130.2685545409
 40
119.1526448238
100
AcDbArc
 50
263.3475268039
 51
263.5095558291
  0
ARC
  5
3CD
100
AcDbEntity
  8
0
100
AcDbCircle
 62
7
  6
BYLAYER
 10
8.9782575169
 20
1.2457544108
 40
14.5336883519
100
AcDbArc
 50
51.9301381064
 51
52.1447724644
  0
ARC
  5
3CE
100
AcDbEntity
  8
0
100
AcDbCircle
 62
7
  6
BYLAYER
 10
15.6268648415
 20
11.2937166809
 40
0.0358645528
100
AcDbArc
 50
206.1751517592
 51
223.4579710999
  0
ARC
  5
3CF
100
AcDbEntity
  8
0
100
AcDbCircle
 62
7
  6
BYLAYER
 10
15.5178234777
 20
11.5156354356
 40
0.0357396394
100
AcDbArc
 50
162.8318918794
 51
206.1057904393
  0
ARC
  5
3D0
100
AcDbEntity
  8
0
100
AcDbCircle
 62
7
  6
BYLAYER
 10
15.6267464087
 20
11.2936447002
 40
0.0357290869
100
AcDbArc
 50
223.5048151499
 51
269.9910059767
  0
ARC
  5
3D1
100
AcDbEntity
  8
0
100
AcDbCircle
 62
7
  6
BYLAYER
 10
15.8899002091
 20
11.2936302394
 40
0.0357146166
100
AcDbArc
 50
270.0002034839
 51
342.8242883592
  0
SPLINE
  5
3D2
100
AcDbEntity
  8
0
100
AcDbSpline
 62
7
  6
BYLAYER
 70
0
 71
3
 72
15
 73
11
 74
0
 42
0.0000001
 43
0.0000001
 44
0.0000000001
 40
0.0
 40
0.0
 40
0.0
 40
0.0
 40
0.1736455202
 40
0.3337656822
 40
0.4801107931
 40
0.6124744
 40
0.7306954061
 40
0.8346774694
 40
0.9244070232
 40
1.0
 40
1.0
 40
1.0
 40
1.0
 10
6.6923735315
 20
5.0025865868
 30
0.0
 10
6.6926380837
 20
5.0081917947
 30
0.0
 10
6.6931986799
 20
5.0189632884
 30
0.0
 10
6.694196408
 20
5.0344466842
 30
0.0
 10
6.6953252505
 20
5.0485833549
 30
0.0
 10
6.6965924826
 20
5.0613486287
 30
0.0
 10
6.6980050072
 20
5.0727206306
 30
0.0
 10
6.6995677025
 20
5.0826815867
 30
0.0
 10
6.7012853268
 20
5.0912159344
 30
0.0
 10
6.7026508556
 20
5.0963872582
 30
0.0
 10
6.7033878328
 20
5.0987162645
 30
0.0
  0
LINE
  5
3D3
100
AcDbEntity
  8
0
100
AcDbLine
 62
7
  6
BYLAYER
 10
7.2857142857
 20
4.5596840987
 11
7.1428571429
 21
4.5728047381
  0
SPLINE
  5
3D4
100
AcDbEntity
  8
0
100
AcDbSpline
 62
7
  6
BYLAYER
 70
0
 71
3
 72
11
 73
7
 74
0
 42
0.0000001
 43
0.0000001
 44
0.0000000001
 40
0.0
 40
0.0
 40
0.0
 40
0.0
 40
0.2500026111
 40
0.5000000005
 40
0.7499973897
 40
1.0
 40
1.0
 40
1.0
 40
1.0
 10
7.114097389
 20
12.9286044286
 30
0.0
 10
7.116182022
 20
12.9138221555
 30
0.0
 10
7.1193990148
 20
12.88411222
 30
0.0
 10
7.121047366
 20
12.8393187142
 30
0.0
 10
7.1193990148
 20
12.7945252085
 30
0.0
 10
7.116182022
 20
12.764815273
 30
0.0
 10
7.114097389
 20
12.750033
 30
0.0
  0
SPLINE
  5
3D5
100
AcDbEntity
  8
0
100
AcDbSpline
 62
7
  6
BYLAYER
 70
0
 71
3
 72
14
 73
10
 74
0
 42
0.0000001
 43
0.0000001
 44
0.0000000001
 40
0.0
 40
0.0
 40
0.0
 40
0.0
 40
0.258028335
 40
0.3860123675
 40
0.5127712008
 40
0.6379127705
 40
0.7610617319
 40
0.8818639687
 40
1.0
 40
1.0
 40
1.0
 40
1.0
 10
6.7137551037
 20
12.8393187143
 30
0.0
 10
6.7162876301
 20
12.8705333576
 30
0.0
 10
6.7204476626
 20
12.9172023947
 30
0.0
 10
6.7268840528
 20
12.9791052317
 30
0.0
 10
6.7321638731
 20
13.0249101302
 30
0.0
 10
6.7379641531
 20
13.0700607275
 30
0.0
 10
6.7443543251
 20
13.1144021149
 30
0.0
 10
6.7514381273
 20
13.1577771399
 30
0.0
 10
6.7567984839
 20
13.1862825415
 30
0.0
 10
6.7596847656
 20
13.2003273478
 30
0.0
  0
SPLINE
  5
3D6
100
AcDbEntity
  8
0
100
AcDbSpline
 62
7
  6
BYLAYER
 70
0
 71
3
 72
11
 73
7
 74
0
 42
0.0000001
 43
0.0000001
 44
0.0000000001
 40
0.0
 40
0.0
 40
0.0
 40
0.0
 40
0.2295503594
 40
0.4765102502
 40
0.7352789725
 40
1.0
 40
1.0
 40
1.0
 40
1.0
 10
6.6910165713
 20
12.3719481069
 30
0.0
 10
6.69178499
 20
12.4077486907
 30
0.0
 10
6.6937707393
 20
12.4820573778
 30
0.0
 10
6.6982458362
 20
12.5966737426
 30
0.0
 10
6.7046699152
 20
12.716693018
 30
0.0
 10
6.7104156802
 20
12.7981586638
 30
0.0
 10
6.7137551037
 20
12.8393187143
 30
0.0
  0
SPLINE
  5
3D7
100
AcDbEntity
  8
0
100
AcDbSpline
 62
7
  6
BYLAYER
 70
0
 71
3
 72
17
 73
13
 74
0
 42
0.0000001
 43
0.0000001
 44
0.0000000001
 40
0.0
 40
0.0
 40
0.0
 40
0.0
 40
0.0205209178
 40
0.044757989
 40
0.0746577845
 40
0.1111676801
 40
0.2049228143
 40
0.3257628422
 40
0.4706912737
 40
0.6353473039
 40
0.8142101464
 40
1.0
 40
1.0
 40
1.0
 40
1.0
 10
4.8124285714
 20
12.0192499641
 30
0.0
 10
4.8124285714
 20
12.019509825
 30
0.0
 10
4.8125697343
 20
12.0200791305
 30
0.0
 10
4.8131204425
 20
12.0208629714
 30
0.0
 10
4.8139828247
 20
12.0216304349
 30
0.0
 10
4.8156958857
 20
12.0227265993
 30
0.0
 10
4.8186385154
 20
12.0239758549
 30
0.0
 10
4.8230100677
 20
12.0252615151
 30
0.0
 10
4.8283550012
 20
12.0263590294
 30
0.0
 10
4.8344863388
 20
12.0272008357
 30
0.0
 10
4.8411715972
 20
12.0277286469
 30
0.0
 10
4.8457901591
 20
12.027849588
 30
0.0
 10
4.8481428571
 20
12.027849588
 30
0.0
  0
SPLINE
  5
3D8
100
AcDbEntity
  8
0
100
AcDbSpline
 62
7
  6
BYLAYER
 70
0
 71
3
 72
17
 73
13
 74
0
 42
0.0000001
 43
0.0000001
 44
0.0000000001
 40
0.0
 40
0.0
 40
0.0
 40
0.0
 40
0.1857898536
 40
0.3646526961
 40
0.5293087263
 40
0.6742371578
 40
0.7950771857
 40
0.8888323199
 40
0.9253422155
 40
0.955242011
 40
0.9794790822
 40
1.0
 40
1.0
 40
1.0
 40
1.0
 10
5.1338571429
 20
12.027849588
 30
0.0
 10
5.1362098409
 20
12.027849588
 30
0.0
 10
5.1408284028
 20
12.0277286469
 30
0.0
 10
5.1475136612
 20
12.0272008357
 30
0.0
 10
5.1536449988
 20
12.0263590294
 30
0.0
 10
5.1589899323
 20
12.0252615151
 30
0.0
 10
5.1633614846
 20
12.0239758549
 30
0.0
 10
5.1663041143
 20
12.0227265993
 30
0.0
 10
5.1680171753
 20
12.0216304349
 30
0.0
 10
5.1688795575
 20
12.0208629714
 30
0.0
 10
5.1694302657
 20
12.0200791305
 30
0.0
 10
5.1695714286
 20
12.019509825
 30
0.0
 10
5.1695714286
 20
12.0192499641
 30
0.0
  0
SPLINE
  5
3D9
100
AcDbEntity
  8
0
100
AcDbSpline
 62
7
  6
BYLAYER
 70
0
 71
3
 72
9
 73
5
 74
0
 42
0.0000001
 43
0.0000001
 44
0.0000000001
 40
0.0
 40
0.0
 40
0.0
 40
0.0
 40
0.5004254546
 40
1.0
 40
1.0
 40
1.0
 40
1.0
 10
17.2768781838
 20
4.288208873
 30
0.0
 10
17.2759631718
 20
4.3163585436
 30
0.0
 10
17.2732337459
 20
4.3725842513
 30
0.0
 10
17.2688304152
 20
4.4287001725
 30
0.0
 10
17.2663043839
 20
4.4567031197
 30
0.0
  0
SPLINE
  5
3DA
100
AcDbEntity
  8
0
100
AcDbSpline
 62
7
  6
BYLAYER
 70
0
 71
3
 72
14
 73
10
 74
0
 42
0.0000001
 43
0.0000001
 44
0.0000000001
 40
0.0
 40
0.0
 40
0.0
 40
0.0
 40
0.1329739943
 40
0.2658515178
 40
0.3984187152
 40
0.530260044
 40
0.6605741543
 40
0.7876265813
 40
1.0
 40
1.0
 40
1.0
 40
1.0
 10
17.2663043839
 20
4.4567031197
 30
0.0
 10
17.2657143122
 20
4.4709469754
 30
0.0
 10
17.2643773862
 20
4.499418361
 30
0.0
 10
17.2617086998
 20
4.5420513105
 30
0.0
 10
17.2582252324
 20
4.5845046518
 30
0.0
 10
17.2538176055
 20
4.6265963255
 30
0.0
 10
17.248468074
 20
4.667983436
 30
0.0
 10
17.2407535124
 20
4.7177536759
 30
0.0
 10
17.233957981
 20
4.7535179496
 30
0.0
 10
17.2292233972
 20
4.7757886869
 30
0.0
  0
LINE
  5
3DB
100
AcDbEntity
  8
0
100
AcDbLine
 62
7
  6
BYLAYER
 10
17.2292233972
 20
4.7757886869
 11
17.2270984386
 21
4.808833788
  0
SPLINE
  5
3DC
100
AcDbEntity
  8
0
100
AcDbSpline
 62
7
  6
BYLAYER
 70
0
 71
3
 72
41
 73
37
 74
0
 42
0.0000001
 43
0.0000001
 44
0.0000000001
 40
0.0
 40
0.0
 40
0.0
 40
0.0
 40
0.0312545341
 40
0.0468868445
 40
0.0625195705
 40
0.0937763307
 40
0.1250325976
 40
0.1406648184
 40
0.1562965863
 40
0.1875495499
 40
0.2187999835
 40
0.2500476318
 40
0.2812924756
 40
0.3125347183
 40
0.3437747388
 40
0.3750130838
 40
0.4062504645
 40
0.4374876219
 40
0.4687252971
 40
0.4999642366
 40
0.5312050796
 40
0.5624483239
 40
0.5936943153
 40
0.6249432254
 40
0.6561949736
 40
0.687449301
 40
0.7187058038
 40
0.7499638741
 40
0.781222759
 40
0.8124817017
 40
0.8437399275
 40
0.8749966614
 40
0.9062512567
 40
0.9375034546
 40
0.96875265
 40
1.0
 40
1.0
 40
1.0
 40
1.0
 10
15.84459691
 20
4.2882088764
 30
0.0
 10
15.8440093215
 20
4.3096920335
 30
0.0
 10
15.8447039703
 20
4.3419921988
 30
0.0
 10
15.8487655271
 20
4.3848015769
 30
0.0
 10
15.8549031272
 20
4.4273680269
 30
0.0
 10
15.8664396789
 20
4.4799407862
 30
0.0
 10
15.8830001799
 20
4.5311524251
 30
0.0
 10
15.8991474974
 20
4.5710103575
 30
0.0
 10
15.9171857937
 20
4.6100461357
 30
0.0
 10
15.9432042852
 20
4.6571543666
 30
0.0
 10
15.979641468
 20
4.7104480944
 30
0.0
 10
16.0209376865
 20
4.760066478
 30
0.0
 10
16.0666910742
 20
4.8055964738
 30
0.0
 10
16.1164703588
 20
4.8466761015
 30
0.0
 10
16.1698184801
 20
4.8829902769
 30
0.0
 10
16.2262589464
 20
4.9142728342
 30
0.0
 10
16.2853008766
 20
4.94030622
 30
0.0
 10
16.3464440843
 20
4.9609207579
 30
0.0
 10
16.4091835003
 20
4.9759934088
 30
0.0
 10
16.4730130833
 20
4.985447018
 30
0.0
 10
16.5374297031
 20
4.9892467729
 30
0.0
 10
16.6019356743
 20
4.9873982405
 30
0.0
 10
16.6660412246
 20
4.979947372
 30
0.0
 10
16.7292670383
 20
4.966978747
 30
0.0
 10
16.7911465656
 20
4.9486141204
 30
0.0
 10
16.8512285949
 20
4.925011633
 30
0.0
 10
16.9090785778
 20
4.8963617989
 30
0.0
 10
16.9642786379
 20
4.8628841123
 30
0.0
 10
17.0164309032
 20
4.8248297552
 30
0.0
 10
17.0651588425
 20
4.7824789848
 30
0.0
 10
17.1101085249
 20
4.7361396135
 30
0.0
 10
17.1509496426
 20
4.6861447687
 30
0.0
 10
17.1873690144
 20
4.6328472416
 30
0.0
 10
17.2190724428
 20
4.5766196037
 30
0.0
 10
17.2457798437
 20
4.517863637
 30
0.0
 10
17.2600797368
 20
4.4772679626
 30
0.0
 10
17.2663043839
 20
4.4567031197
 30
0.0
  0
SPLINE
  5
3DD
100
AcDbEntity
  8
0
100
AcDbSpline
 62
7
  6
BYLAYER
 70
0
 71
3
 72
43
 73
39
 74
0
 42
0.0000001
 43
0.0000001
 44
0.0000000001
 40
0.0
 40
0.0
 40
0.0
 40
0.0
 40
0.0312382885
 40
0.0624777756
 40
0.0937191637
 40
0.124961994
 40
0.1562061786
 40
0.1874514908
 40
0.2186978159
 40
0.2499451023
 40
0.2811931429
 40
0.3124418333
 40
0.3436911594
 40
0.3593209377
 40
0.374950795
 40
0.4062009683
 40
0.4374515391
 40
0.4530817441
 40
0.4687119868
 40
0.4999630274
 40
0.5312142966
 40
0.5624657295
 40
0.5937172245
 40
0.6249688162
 40
0.6562204886
 40
0.6874721346
 40
0.7187237534
 40
0.7499753753
 40
0.7812268975
 40
0.8124782698
 40
0.8437295543
 40
0.8593595327
 40
0.8749894479
 40
0.9062402979
 40
0.9374909858
 40
0.9531204129
 40
0.9687496832
 40
1.0
 40
1.0
 40
1.0
 40
1.0
 10
17.2768782626
 20
4.2882088764
 30
0.0
 10
17.2781317159
 20
4.2646760166
 30
0.0
 10
17.2781404657
 20
4.2174385004
 30
0.0
 10
17.2706903634
 20
4.1470052705
 30
0.0
 10
17.2558997695
 20
4.0777302611
 30
0.0
 10
17.2339659856
 20
4.01037511
 30
0.0
 10
17.2051622795
 20
3.9456567102
 30
0.0
 10
17.169830406
 20
3.8842566922
 30
0.0
 10
17.1283766223
 20
3.8268105397
 30
0.0
 10
17.0812659977
 20
3.7739034672
 30
0.0
 10
17.0290140092
 20
3.7260650011
 30
0.0
 10
16.9721873199
 20
3.683767381
 30
0.0
 10
16.9215052334
 20
3.6534685076
 30
0.0
 10
16.8793059796
 20
3.6323830724
 30
0.0
 10
16.8361018392
 20
3.6134390911
 30
0.0
 10
16.7803989037
 20
3.5938522384
 30
0.0
 10
16.7230229498
 20
3.5799107904
 30
0.0
 10
16.6764797083
 20
3.5722139102
 30
0.0
 10
16.6296124957
 20
3.5668305521
 30
0.0
 10
16.5706126033
 20
3.564458909
 30
0.0
 10
16.4998938379
 20
3.5685911394
 30
0.0
 10
16.4299173926
 20
3.5796328954
 30
0.0
 10
16.3613546853
 20
3.5974534028
 30
0.0
 10
16.2948508819
 20
3.6218583759
 30
0.0
 10
16.2310264696
 20
3.65259439
 30
0.0
 10
16.1704703163
 20
3.6893518026
 30
0.0
 10
16.1137349743
 20
3.7317682373
 30
0.0
 10
16.0613325988
 20
3.7794327139
 30
0.0
 10
16.0137304664
 20
3.8318916499
 30
0.0
 10
15.9713500258
 20
3.8886475761
 30
0.0
 10
15.9406843408
 20
3.9390988568
 30
0.0
 10
15.9191120816
 20
3.9810511649
 30
0.0
 10
15.8995508557
 20
4.0239780659
 30
0.0
 10
15.8789430316
 20
4.0793004407
 30
0.0
 10
15.8636440653
 20
4.136318151
 30
0.0
 10
15.8546628508
 20
4.1826283643
 30
0.0
 10
15.8478668384
 20
4.2293054896
 30
0.0
 10
15.8452414793
 20
4.2646423974
 30
0.0
 10
15.84459691
 20
4.2882088764
 30
0.0
  0
SPLINE
  5
3DE
100
AcDbEntity
  8
02___PRT_ALL_AXES
100
AcDbSpline
 62
7
  6
BYLAYER
 70
0
 71
3
 72
17
 73
13
 74
0
 42
0.0000001
 43
0.0000001
 44
0.0000000001
 40
0.0
 40
0.0
 40
0.0
 40
0.0
 40
0.023749941
 40
0.0915735931
 40
0.1954761993
 40
0.3265837866
 40
0.4775341145
 40
0.6428296522
 40
0.7295718586
 40
0.8184017673
 40
0.9087747091
 40
1.0
 40
1.0
 40
1.0
 40
1.0
 10
16.5
 20
5.1880291184
 30
0.0
 10
16.5006405359
 20
5.1875374077
 30
0.0
 10
16.5031141139
 20
5.1856465102
 30
0.0
 10
16.5084245712
 20
5.1816498811
 30
0.0
 10
16.5167285714
 20
5.1755613281
 30
0.0
 10
16.5275029902
 20
5.1680661345
 30
0.0
 10
16.5403184539
 20
5.1598649799
 30
0.0
 10
16.5523209988
 20
5.1532191347
 30
0.0
 10
16.5628612228
 20
5.1483856572
 30
0.0
 10
16.5713140383
 20
5.1451521964
 30
0.0
 10
16.580144393
 20
5.1425518588
 30
0.0
 10
16.5862153436
 20
5.1413626191
 30
0.0
 10
16.5892857143
 20
5.140922998
 30
0.0
  0
SPLINE
  5
3DF
100
AcDbEntity
  8
02___PRT_ALL_AXES
100
AcDbSpline
 62
7
  6
BYLAYER
 70
0
 71
3
 72
17
 73
13
 74
0
 42
0.0000001
 43
0.0000001
 44
0.0000000001
 40
0.0
 40
0.0
 40
0.0
 40
0.0
 40
0.0949453637
 40
0.1889449571
 40
0.2810905372
 40
0.3706004242
 40
0.5391122263
 40
0.6898425693
 40
0.8174980736
 40
0.915881153
 40
0.9784492716
 40
1.0
 40
1.0
 40
1.0
 40
1.0
 10
16.5892857143
 20
5.140922998
 30
0.0
 10
16.5922342503
 20
5.1405008215
 30
0.0
 10
16.5981478566
 20
5.1399492829
 30
0.0
 10
16.6069795097
 20
5.1400130622
 30
0.0
 10
16.615594521
 20
5.1408905211
 30
0.0
 10
16.6264032692
 20
5.1429077698
 30
0.0
 10
16.6387342248
 20
5.1465418068
 30
0.0
 10
16.6517787319
 20
5.1517062719
 30
0.0
 10
16.6625148713
 20
5.156660273
 30
0.0
 10
16.6705964208
 20
5.1607447145
 30
0.0
 10
16.6756583363
 20
5.1634204619
 30
0.0
 10
16.6779780522
 20
5.1646786655
 30
0.0
 10
16.6785714286
 20
5.1650027005
 30
0.0
  0
SPLINE
  5
3E0
100
AcDbEntity
  8
0
100
AcDbSpline
 62
7
  6
BYLAYER
 70
0
 71
3
 72
13
 73
9
 74
0
 42
0.0000001
 43
0.0000001
 44
0.0000000001
 40
0.0
 40
0.0
 40
0.0
 40
0.0
 40
0.1230661557
 40
0.2473801636
 40
0.3722997742
 40
0.4975569016
 40
0.7485951177
 40
1.0
 40
1.0
 40
1.0
 40
1.0
 10
17.110208192
 20
4.9257785918
 30
0.0
 10
17.1157816625
 20
4.9202234954
 30
0.0
 10
17.1267675934
 20
4.9088376616
 30
0.0
 10
17.1427691319
 20
4.8912082941
 30
0.0
 10
17.1583628398
 20
4.8730318388
 30
0.0
 10
17.1785761735
 20
4.8481573397
 30
0.0
 10
17.2026621888
 20
4.816028079
 30
0.0
 10
17.2205986299
 20
4.7893544391
 30
0.0
 10
17.2292233972
 20
4.7757886869
 30
0.0
  0
SPLINE
  5
3E1
100
AcDbEntity
  8
0
100
AcDbSpline
 62
7
  6
BYLAYER
 70
0
 71
3
 72
18
 73
14
 74
0
 42
0.0000001
 43
0.0000001
 44
0.0000000001
 40
0.0
 40
0.0
 40
0.0
 40
0.0
 40
0.1700791844
 40
0.2504339604
 40
0.3274842727
 40
0.4713136749
 40
0.6012061872
 40
0.7173737833
 40
0.7706427047
 40
0.8209595413
 40
0.9139076778
 40
0.9575570427
 40
1.0
 40
1.0
 40
1.0
 40
1.0
 10
16.7878251862
 20
12.9875535826
 30
0.0
 10
16.7932783494
 20
13.0052000251
 30
0.0
 10
16.8020807671
 20
13.0309599824
 30
0.0
 10
16.8153861853
 20
13.0639483424
 30
0.0
 10
16.8287868749
 20
13.0937967677
 30
0.0
 10
16.8465113244
 20
13.1275789442
 30
0.0
 10
16.8698974661
 20
13.1629707461
 30
0.0
 10
16.8911320151
 20
13.1877423008
 30
0.0
 10
16.9087739962
 20
13.2038586931
 30
0.0
 10
16.9257610673
 20
13.2168055213
 30
0.0
 10
16.9437009962
 20
13.226723291
 30
0.0
 10
16.9622051028
 20
13.232833006
 30
0.0
 10
16.971421233
 20
13.2345936603
 30
0.0
 10
16.9759970448
 20
13.2351466763
 30
0.0
  0
SPLINE
  5
3E2
100
AcDbEntity
  8
0
100
AcDbSpline
 62
7
  6
BYLAYER
 70
0
 71
3
 72
29
 73
25
 74
0
 42
0.0000001
 43
0.0000001
 44
0.0000000001
 40
0.0
 40
0.0
 40
0.0
 40
0.0
 40
0.0666066303
 40
0.1377082917
 40
0.2122697596
 40
0.2891453416
 40
0.3671253582
 40
0.4449690855
 40
0.5214396285
 40
0.5953382871
 40
0.6655406714
 40
0.7310363684
 40
0.7617529074
 40
0.7909908431
 40
0.818679064
 40
0.8447662335
 40
0.8692233544
 40
0.8920493435
 40
0.9132773833
 40
0.9329816188
 40
0.9512873881
 40
0.9683799663
 40
0.9845112518
 40
1.0
 40
1.0
 40
1.0
 40
1.0
 10
16.7878251862
 20
12.9875535826
 30
0.0
 10
16.7802736326
 20
12.9631167461
 30
0.0
 10
16.7667239604
 20
12.9119430901
 30
0.0
 10
16.751226695
 20
12.8318665068
 30
0.0
 10
16.7400934095
 20
12.7470898681
 30
0.0
 10
16.7335387847
 20
12.6591938338
 30
0.0
 10
16.7316875634
 20
12.5698138624
 30
0.0
 10
16.7345750849
 20
12.4806167984
 30
0.0
 10
16.742146105
 20
12.3932658222
 30
0.0
 10
16.7542559889
 20
12.3093853765
 30
0.0
 10
16.7706745401
 20
12.2305373281
 30
0.0
 10
16.7880389636
 20
12.1689668938
 30
0.0
 10
16.8039950751
 20
12.1234988109
 30
0.0
 10
16.8165667825
 20
12.0922662674
 30
0.0
 10
16.8299402628
 20
12.0633137396
 30
0.0
 10
16.8440539597
 20
12.0367740842
 30
0.0
 10
16.858844456
 20
12.0127690474
 30
0.0
 10
16.8742467424
 20
11.9914081168
 30
0.0
 10
16.8901945277
 20
11.9727880766
 30
0.0
 10
16.9066242204
 20
11.9569958727
 30
0.0
 10
16.9234713091
 20
11.9441089857
 30
0.0
 10
16.9406738944
 20
11.9341993619
 30
0.0
 10
16.9581546512
 20
11.9273398044
 30
0.0
 10
16.9701016827
 20
11.924809145
 30
0.0
 10
16.9760065178
 20
11.9240963544
 30
0.0
  0
SPLINE
  5
3E3
100
AcDbEntity
  8
0
100
AcDbSpline
 62
7
  6
BYLAYER
 70
0
 71
3
 72
14
 73
10
 74
0
 42
0.0000001
 43
0.0000001
 44
0.0000000001
 40
0.0
 40
0.0
 40
0.0
 40
0.0
 40
0.2829027992
 40
0.4174382076
 40
0.5465771359
 40
0.6698078706
 40
0.7866794101
 40
0.8968305718
 40
1.0
 40
1.0
 40
1.0
 40
1.0
 10
17.2091184858
 20
12.3215533555
 30
0.0
 10
17.2140643011
 20
12.2887787566
 30
0.0
 10
17.2229155319
 20
12.240623144
 30
0.0
 10
17.2380431452
 20
12.1783844104
 30
0.0
 10
17.2505193926
 20
12.1347896566
 30
0.0
 10
17.2642409797
 20
12.0937463382
 30
0.0
 10
17.2791314402
 20
12.0554867589
 30
0.0
 10
17.2951048569
 20
12.0202306762
 30
0.0
 10
17.3068062554
 20
11.9981211816
 30
0.0
 10
17.312846555
 20
11.9876509767
 30
0.0
  0
SPLINE
  5
3E4
100
AcDbEntity
  8
0
100
AcDbSpline
 62
7
  6
BYLAYER
 70
0
 71
3
 72
21
 73
17
 74
0
 42
0.0000001
 43
0.0000001
 44
0.0000000001
 40
0.0
 40
0.0
 40
0.0
 40
0.0
 40
0.1706211574
 40
0.3313809365
 40
0.4072948278
 40
0.4798547497
 40
0.5488294557
 40
0.6140293632
 40
0.6753173942
 40
0.7326129632
 40
0.7859136667
 40
0.8353050135
 40
0.8809852548
 40
0.9232965418
 40
0.9627465516
 40
1.0
 40
1.0
 40
1.0
 40
1.0
 10
16.8114322477
 20
12.3672674145
 30
0.0
 10
16.81530136
 20
12.3378056467
 30
0.0
 10
16.8245205339
 20
12.2807910899
 30
0.0
 10
16.840513937
 20
12.2116163725
 30
0.0
 10
16.8557162419
 20
12.1599376024
 30
0.0
 10
16.8679317535
 20
12.1240786119
 30
0.0
 10
16.8811134536
 20
12.0905590048
 30
0.0
 10
16.8951967355
 20
12.0595492657
 30
0.0
 10
16.9101080364
 20
12.0312048871
 30
0.0
 10
16.9257762566
 20
12.0056689905
 30
0.0
 10
16.9421240277
 20
11.983067999
 30
0.0
 10
16.9590772981
 20
11.9635154538
 30
0.0
 10
16.9765602406
 20
11.9471100349
 30
0.0
 10
16.9945049032
 20
11.9339405673
 30
0.0
 10
17.0128295035
 20
11.9240993432
 30
0.0
 10
17.0255269966
 20
11.9197125176
 30
0.0
 10
17.0318249963
 20
11.9181542124
 30
0.0
  0
SPLINE
  5
3E5
100
AcDbEntity
  8
0
100
AcDbSpline
 62
7
  6
BYLAYER
 70
0
 71
3
 72
22
 73
18
 74
0
 42
0.0000001
 43
0.0000001
 44
0.0000000001
 40
0.0
 40
0.0
 40
0.0
 40
0.0
 40
0.1675173364
 40
0.2469072506
 40
0.3232316685
 40
0.3964029683
 40
0.4663562124
 40
0.533053642
 40
0.5964874531
 40
0.6566847684
 40
0.7137130569
 40
0.767687341
 40
0.8187773706
 40
0.8672150095
 40
0.9133018664
 40
0.9574137414
 40
1.0
 40
1.0
 40
1.0
 40
1.0
 10
17.2852154167
 20
13.0928942718
 30
0.0
 10
17.2917489481
 20
13.114036787
 30
0.0
 10
17.302261898
 20
13.1449428612
 30
0.0
 10
17.3180591398
 20
13.1846192275
 30
0.0
 10
17.3302560586
 20
13.2122939161
 30
0.0
 10
17.3429822966
 20
13.2383492138
 30
0.0
 10
17.3562060906
 20
13.2627193267
 30
0.0
 10
17.3698942197
 20
13.2853424017
 30
0.0
 10
17.3840126466
 20
13.3061614458
 30
0.0
 10
17.3985266443
 20
13.3251240075
 30
0.0
 10
17.4134013399
 20
13.3421820366
 30
0.0
 10
17.4286014095
 20
13.3572920515
 30
0.0
 10
17.4440915218
 20
13.3704147642
 30
0.0
 10
17.4598359938
 20
13.3815141124
 30
0.0
 10
17.4757995108
 20
13.3905575092
 30
0.0
 10
17.4919402133
 20
13.3975144734
 30
0.0
 10
17.5029496862
 20
13.4007897915
 30
0.0
 10
17.5084324075
 20
13.4020497727
 30
0.0
  0
SPLINE
  5
3E6
100
AcDbEntity
  8
0
100
AcDbSpline
 62
7
  6
BYLAYER
 70
0
 71
3
 72
31
 73
27
 74
0
 42
0.0000001
 43
0.0000001
 44
0.0000000001
 40
0.0
 40
0.0
 40
0.0
 40
0.0
 40
0.0304034376
 40
0.0618221514
 40
0.0941732731
 40
0.1273729677
 40
0.1959427435
 40
0.2667628902
 40
0.3390095484
 40
0.4118290053
 40
0.4843557609
 40
0.5557303102
 40
0.6251171207
 40
0.6917232309
 40
0.7237557941
 40
0.7548257468
 40
0.7848554019
 40
0.8137740746
 40
0.8415191254
 40
0.8680372249
 40
0.8932857562
 40
0.9172345414
 40
0.9398679871
 40
0.9611877725
 40
0.9812161767
 40
1.0
 40
1.0
 40
1.0
 40
1.0
 10
17.2852154167
 20
13.0928942718
 30
0.0
 10
17.2811987638
 20
13.0798963783
 30
0.0
 10
17.2734914961
 20
13.0533224201
 30
0.0
 10
17.2630506067
 20
13.0124910321
 30
0.0
 10
17.2535670242
 20
12.9701433519
 30
0.0
 10
17.2421211948
 20
12.9112243835
 30
0.0
 10
17.2305044408
 20
12.8348368954
 30
0.0
 10
17.2209516692
 20
12.7405848044
 30
0.0
 10
17.2157766283
 20
12.644087255
 30
0.0
 10
17.2150527049
 20
12.546691349
 30
0.0
 10
17.2187900561
 20
12.4497546267
 30
0.0
 10
17.2269357038
 20
12.3546277601
 30
0.0
 10
17.239374111
 20
12.2626381187
 30
0.0
 10
17.2533450414
 20
12.1887196118
 30
0.0
 10
17.266615864
 20
12.1322098276
 30
0.0
 10
17.2773852962
 20
12.0919449734
 30
0.0
 10
17.2890616644
 20
12.0533868035
 30
0.0
 10
17.3016044171
 20
12.0166694672
 30
0.0
 10
17.3149696968
 20
11.981920784
 30
0.0
 10
17.3291109784
 20
11.9492613212
 30
0.0
 10
17.3439792806
 20
11.9188040965
 30
0.0
 10
17.3595236234
 20
11.8906540874
 30
0.0
 10
17.3756910836
 20
11.8649082308
 30
0.0
 10
17.3924284727
 20
11.8416540877
 30
0.0
 10
17.4096787602
 20
11.8209735334
 30
0.0
 10
17.4218648228
 20
11.8085630227
 30
0.0
 10
17.42803235
 20
11.8028528357
 30
0.0
  0
SPLINE
  5
3E7
100
AcDbEntity
  8
0
100
AcDbSpline
 62
7
  6
BYLAYER
 70
0
 71
3
 72
21
 73
17
 74
0
 42
0.0000001
 43
0.0000001
 44
0.0000000001
 40
0.0
 40
0.0
 40
0.0
 40
0.0
 40
0.0504333207
 40
0.1018841189
 40
0.1550199304
 40
0.2103353938
 40
0.2681253959
 40
0.3284856092
 40
0.3913301205
 40
0.4564174675
 40
0.5233795971
 40
0.5917512943
 40
0.7303867199
 40
0.7996482914
 40
0.8680478695
 40
1.0
 40
1.0
 40
1.0
 40
1.0
 10
17.8286079432
 20
13.9245877126
 30
0.0
 10
17.8308568297
 20
13.919306359
 30
0.0
 10
17.8344147901
 20
13.9081886724
 30
0.0
 10
17.8366942532
 20
13.8906048813
 30
0.0
 10
17.8359287908
 20
13.8723375065
 30
0.0
 10
17.832149307
 20
13.8537237577
 30
0.0
 10
17.8254412781
 20
13.8350872416
 30
0.0
 10
17.8159345874
 20
13.8167490765
 30
0.0
 10
17.8038027421
 20
13.7990228365
 30
0.0
 10
17.7892621342
 20
13.7822130894
 30
0.0
 10
17.7725656751
 20
13.766607078
 30
0.0
 10
17.747725223
 20
13.7476921498
 30
0.0
 10
17.7199971276
 20
13.7323780763
 30
0.0
 10
17.690542348
 20
13.7212431167
 30
0.0
 10
17.6608899759
 20
13.7132253944
 30
0.0
 10
17.6380145956
 20
13.7105749133
 30
0.0
 10
17.6229960533
 20
13.7105749133
 30
0.0
  0
SPLINE
  5
3E8
100
AcDbEntity
  8
02___PRT_ALL_AXES
100
AcDbSpline
 62
7
  6
BYLAYER
 70
0
 71
3
 72
14
 73
10
 74
0
 42
0.0000001
 43
0.0000001
 44
0.0000000001
 40
0.0
 40
0.0
 40
0.0
 40
0.0
 40
0.3152667198
 40
0.45425357
 40
0.5812298155
 40
0.6972333718
 40
0.8039363078
 40
0.9037966714
 40
1.0
 40
1.0
 40
1.0
 40
1.0
 10
18.2471525343
 20
12.963418268
 30
0.0
 10
18.2479981606
 20
12.9616950627
 30
0.0
 10
18.2493726545
 20
12.9592763708
 30
0.0
 10
18.25154555
 20
12.9564764839
 30
0.0
 10
18.2531704007
 20
12.9548045358
 30
0.0
 10
18.2548494864
 20
12.9534834443
 30
0.0
 10
18.2565753458
 20
12.9525253794
 30
0.0
 10
18.2583363803
 20
12.9519423654
 30
0.0
 10
18.2595337921
 20
12.9518109175
 30
0.0
 10
18.2601195288
 20
12.9518108247
 30
0.0
  0
SPLINE
  5
3E9
100
AcDbEntity
  8
02___PRT_ALL_AXES
100
AcDbSpline
 62
7
  6
BYLAYER
 70
0
 71
3
 72
23
 73
19
 74
0
 42
0.0000001
 43
0.0000001
 44
0.0000000001
 40
0.0
 40
0.0
 40
0.0
 40
0.0
 40
0.0673998386
 40
0.1394233254
 40
0.2149688537
 40
0.2928262555
 40
0.4502670537
 40
0.5272978382
 40
0.6014929883
 40
0.6716829418
 40
0.7368287424
 40
0.7960756988
 40
0.8488254936
 40
0.8948444818
 40
0.9344383256
 40
0.9687198115
 40
0.9845667702
 40
1.0
 40
1.0
 40
1.0
 40
1.0
 10
18.097064497
 20
12.563914941
 30
0.0
 10
18.0964343899
 20
12.5618759137
 30
0.0
 10
18.0953069348
 20
12.5576024434
 30
0.0
 10
18.0940269166
 20
12.5509126798
 30
0.0
 10
18.0931190442
 20
12.5438281128
 30
0.0
 10
18.0924280245
 20
12.5340060659
 30
0.0
 10
18.092538836
 20
12.5240931972
 30
0.0
 10
18.0934569374
 20
12.5143586958
 30
0.0
 10
18.0945253
 20
12.507424924
 30
0.0
 10
18.0959560042
 20
12.5009411836
 30
0.0
 10
18.0977210468
 20
12.4950314348
 30
0.0
 10
18.099786319
 20
12.4898073715
 30
0.0
 10
18.1021131311
 20
12.4853647393
 30
0.0
 10
18.104665103
 20
12.4817814201
 30
0.0
 10
18.1074073372
 20
12.479118332
 30
0.0
 10
18.1099128881
 20
12.4776855067
 30
0.0
 10
18.111923827
 20
12.4771336987
 30
0.0
 10
18.1129164994
 20
12.4770430966
 30
0.0
 10
18.1134051813
 20
12.4770430203
 30
0.0
  0
SPLINE
  5
3EA
100
AcDbEntity
  8
02___PRT_ALL_AXES
100
AcDbSpline
 62
7
  6
BYLAYER
 70
0
 71
3
 72
14
 73
10
 74
0
 42
0.0000001
 43
0.0000001
 44
0.0000000001
 40
0.0
 40
0.0
 40
0.0
 40
0.0
 40
0.3152667198
 40
0.45425357
 40
0.5812298155
 40
0.6972333718
 40
0.8039363078
 40
0.9037966714
 40
1.0
 40
1.0
 40
1.0
 40
1.0
 10
18.2853214775
 20
12.1118979307
 30
0.0
 10
18.2861671038
 20
12.1101747254
 30
0.0
 10
18.2875415977
 20
12.1077560335
 30
0.0
 10
18.2897144932
 20
12.1049561466
 30
0.0
 10
18.2913393439
 20
12.1032841985
 30
0.0
 10
18.2930184296
 20
12.101963107
 30
0.0
 10
18.294744289
 20
12.1010050422
 30
0.0
 10
18.2965053234
 20
12.1004220281
 30
0.0
 10
18.2977027353
 20
12.1002905802
 30
0.0
 10
18.298288472
 20
12.1002904875
 30
0.0
  0
SPLINE
  5
3EB
100
AcDbEntity
  8
02___PRT_ALL_AXES
100
AcDbSpline
 62
7
  6
BYLAYER
 70
0
 71
3
 72
23
 73
19
 74
0
 42
0.0000001
 43
0.0000001
 44
0.0000000001
 40
0.0
 40
0.0
 40
0.0
 40
0.0
 40
0.0673998386
 40
0.1394233254
 40
0.2149688537
 40
0.2928262555
 40
0.4502670537
 40
0.5272978382
 40
0.6014929883
 40
0.6716829418
 40
0.7368287424
 40
0.7960756988
 40
0.8488254936
 40
0.8948444818
 40
0.9344383256
 40
0.9687198115
 40
0.9845667702
 40
1.0
 40
1.0
 40
1.0
 40
1.0
 10
18.4286621352
 20
12.6619302089
 30
0.0
 10
18.4280320281
 20
12.6598911816
 30
0.0
 10
18.426904573
 20
12.6556177113
 30
0.0
 10
18.4256245548
 20
12.6489279477
 30
0.0
 10
18.4247166824
 20
12.6418433807
 30
0.0
 10
18.4240256627
 20
12.6320213338
 30
0.0
 10
18.4241364742
 20
12.6221084651
 30
0.0
 10
18.4250545756
 20
12.6123739636
 30
0.0
 10
18.4261229382
 20
12.6054401919
 30
0.0
 10
18.4275536423
 20
12.5989564514
 30
0.0
 10
18.429318685
 20
12.5930467027
 30
0.0
 10
18.4313839572
 20
12.5878226394
 30
0.0
 10
18.4337107693
 20
12.5833800072
 30
0.0
 10
18.4362627411
 20
12.579796688
 30
0.0
 10
18.4390049754
 20
12.5771335999
 30
0.0
 10
18.4415105263
 20
12.5757007745
 30
0.0
 10
18.4435214652
 20
12.5751489666
 30
0.0
 10
18.4445141376
 20
12.5750583645
 30
0.0
 10
18.4450028195
 20
12.5750582882
 30
0.0
  0
SPLINE
  5
3EC
100
AcDbEntity
  8
0
100
AcDbSpline
 62
7
  6
BYLAYER
 70
0
 71
3
 72
15
 73
11
 74
0
 42
0.0000001
 43
0.0000001
 44
0.0000000001
 40
0.0
 40
0.0
 40
0.0
 40
0.0
 40
0.1639842599
 40
0.315435485
 40
0.4543864559
 40
0.5813405284
 40
0.6973101785
 40
0.803985338
 40
0.9038199057
 40
1.0
 40
1.0
 40
1.0
 40
1.0
 10
18.2273334896
 20
12.4117662746
 30
0.0
 10
18.2290934177
 20
12.4081799183
 30
0.0
 10
18.2327052916
 20
12.4013882216
 30
0.0
 10
18.2386613738
 20
12.3920422994
 30
0.0
 10
18.2449075268
 20
12.3839977125
 30
0.0
 10
18.251406414
 20
12.3773093044
 30
0.0
 10
18.2581239602
 20
12.3720253575
 30
0.0
 10
18.2650276599
 20
12.36819303
 30
0.0
 10
18.2720725472
 20
12.3658620542
 30
0.0
 10
18.2768624764
 20
12.365336311
 30
0.0
 10
18.2792055715
 20
12.3653363896
 30
0.0
  0
SPLINE
  5
3ED
100
AcDbEntity
  8
0
100
AcDbSpline
 62
7
  6
BYLAYER
 70
0
 71
3
 72
27
 73
23
 74
0
 42
0.0000001
 43
0.0000001
 44
0.0000000001
 40
0.0
 40
0.0
 40
0.0
 40
0.0
 40
0.1324271898
 40
0.166629359
 40
0.2011161458
 40
0.270632805
 40
0.3403991503
 40
0.4098034964
 40
0.4782513409
 40
0.5451945861
 40
0.6101615388
 40
0.6727879272
 40
0.7328484325
 40
0.7902879609
 40
0.8180815671
 40
0.8452909475
 40
0.8719672544
 40
0.8981748069
 40
0.9239902232
 40
0.9495009805
 40
0.9748033869
 40
1.0
 40
1.0
 40
1.0
 40
1.0
 10
17.7872553442
 20
14.2421181734
 30
0.0
 10
17.7444215444
 20
14.2421181734
 30
0.0
 10
17.6903136353
 20
14.2357308443
 30
0.0
 10
17.6271733625
 20
14.2201049788
 30
0.0
 10
17.584354821
 20
14.2071883415
 30
0.0
 10
17.5318143796
 20
14.1869529834
 30
0.0
 10
17.4713925931
 20
14.1566267834
 30
0.0
 10
17.4145062786
 20
14.1207331842
 30
0.0
 10
17.3621873756
 20
14.0799208536
 30
0.0
 10
17.3153826681
 20
14.0349222804
 30
0.0
 10
17.274941746
 20
13.9865437946
 30
0.0
 10
17.2416017696
 20
13.9356444151
 30
0.0
 10
17.215981679
 20
13.8831374803
 30
0.0
 10
17.2013083146
 20
13.8383008974
 30
0.0
 10
17.1940052102
 20
13.8026396933
 30
0.0
 10
17.1907539642
 20
13.776391633
 30
0.0
 10
17.1896879907
 20
13.7504772008
 30
0.0
 10
17.1908137067
 20
13.7250146157
 30
0.0
 10
17.194127848
 20
13.7001225263
 30
0.0
 10
17.1996170872
 20
13.6759163032
 30
0.0
 10
17.2072559048
 20
13.6525120247
 30
0.0
 10
17.2137657908
 20
13.637500386
 30
0.0
 10
17.2173561376
 20
13.630183961
 30
0.0
  0
SPLINE
  5
3EE
100
AcDbEntity
  8
0
100
AcDbSpline
 62
7
  6
BYLAYER
 70
0
 71
3
 72
21
 73
17
 74
0
 42
0.0000001
 43
0.0000001
 44
0.0000000001
 40
0.0
 40
0.0
 40
0.0
 40
0.0
 40
0.1413095164
 40
0.2775591842
 40
0.3437422375
 40
0.408606879
 40
0.4721752165
 40
0.5344898518
 40
0.5956154295
 40
0.6556385075
 40
0.7146671035
 40
0.7728298773
 40
0.8302744493
 40
0.8871647686
 40
0.9436778685
 40
1.0
 40
1.0
 40
1.0
 40
1.0
 10
17.7872553442
 20
14.2421181734
 30
0.0
 10
17.8056170158
 20
14.2421181734
 30
0.0
 10
17.8417138155
 20
14.2402854418
 30
0.0
 10
17.8859032153
 20
14.2330931402
 30
0.0
 10
17.9195591533
 20
14.2244354778
 30
0.0
 10
17.9436274809
 20
14.2166191084
 30
0.0
 10
17.9666725744
 20
14.2074462665
 30
0.0
 10
17.9886095941
 20
14.1969495701
 30
0.0
 10
18.0093568324
 20
14.1851671803
 30
0.0
 10
18.0288369651
 20
14.172141866
 30
0.0
 10
18.0469768773
 20
14.1579209548
 30
0.0
 10
18.0637082451
 20
14.1425564756
 30
0.0
 10
18.0789678612
 20
14.1261053392
 30
0.0
 10
18.0926980518
 20
14.1086280444
 30
0.0
 10
18.1048454942
 20
14.0901915614
 30
0.0
 10
18.1118641557
 20
14.0772955038
 30
0.0
 10
18.1150882273
 20
14.0707254761
 30
0.0
  0
SPLINE
  5
3EF
100
AcDbEntity
  8
02___PRT_ALL_AXES
100
AcDbSpline
 62
7
  6
BYLAYER
 70
0
 71
3
 72
18
 73
14
 74
0
 42
0.0000001
 43
0.0000001
 44
0.0000000001
 40
0.0
 40
0.0
 40
0.0
 40
0.0
 40
0.1325554487
 40
0.2707008724
 40
0.4098378702
 40
0.5451767032
 40
0.6726740656
 40
0.7327918435
 40
0.7902860523
 40
0.8452987116
 40
0.8981849504
 40
0.9495076359
 40
1.0
 40
1.0
 40
1.0
 40
1.0
 10
17.8418735971
 20
13.5908888675
 30
0.0
 10
17.8464630526
 20
13.5908888675
 30
0.0
 10
17.8558573021
 20
13.5919973998
 30
0.0
 10
17.8694056623
 20
13.5964922238
 30
0.0
 10
17.8819322471
 20
13.6035508429
 30
0.0
 10
17.8925564781
 20
13.6126825572
 30
0.0
 10
17.8993510438
 20
13.6217055911
 30
0.0
 10
17.9030819873
 20
13.6293526806
 30
0.0
 10
17.9049476348
 20
13.6350529882
 30
0.0
 10
17.9058952787
 20
13.6407242581
 30
0.0
 10
17.9059013247
 20
13.6462642379
 30
0.0
 10
17.9049599865
 20
13.65156566
 30
0.0
 10
17.9037037043
 20
13.6548855656
 30
0.0
 10
17.9029334002
 20
13.6564548996
 30
0.0
  0
SPLINE
  5
3F0
100
AcDbEntity
  8
02___PRT_ALL_AXES
100
AcDbSpline
 62
7
  6
BYLAYER
 70
0
 71
3
 72
11
 73
7
 74
0
 42
0.0000001
 43
0.0000001
 44
0.0000000001
 40
0.0
 40
0.0
 40
0.0
 40
0.0
 40
0.2644280716
 40
0.5170829352
 40
0.7609159252
 40
1.0
 40
1.0
 40
1.0
 40
1.0
 10
17.3924573304
 20
13.632852809
 30
0.0
 10
17.3930866128
 20
13.6348891676
 30
0.0
 10
17.3940083528
 20
13.6389772901
 30
0.0
 10
17.3942853952
 20
13.6451384869
 30
0.0
 10
17.3934092009
 20
13.6510403708
 30
0.0
 10
17.3920558746
 20
13.6547249691
 30
0.0
 10
17.3912067394
 20
13.6564548986
 30
0.0
  0
SPLINE
  5
3F1
100
AcDbEntity
  8
02___PRT_ALL_AXES
100
AcDbSpline
 62
7
  6
BYLAYER
 70
0
 71
3
 72
18
 73
14
 74
0
 42
0.0000001
 43
0.0000001
 44
0.0000000001
 40
0.0
 40
0.0
 40
0.0
 40
0.0
 40
0.1325554487
 40
0.2707008724
 40
0.4098378702
 40
0.5451767032
 40
0.6726740656
 40
0.7327918435
 40
0.7902860523
 40
0.8452987116
 40
0.8981849504
 40
0.9495076359
 40
1.0
 40
1.0
 40
1.0
 40
1.0
 10
17.4646350903
 20
14.0260926865
 30
0.0
 10
17.4692245458
 20
14.0260926865
 30
0.0
 10
17.4786187952
 20
14.0272012189
 30
0.0
 10
17.4921671554
 20
14.0316960429
 30
0.0
 10
17.5046937403
 20
14.0387546619
 30
0.0
 10
17.5153179713
 20
14.0478863763
 30
0.0
 10
17.5221125369
 20
14.0569094101
 30
0.0
 10
17.5258434805
 20
14.0645564996
 30
0.0
 10
17.5277091279
 20
14.0702568073
 30
0.0
 10
17.5286567719
 20
14.0759280771
 30
0.0
 10
17.5286628179
 20
14.0814680569
 30
0.0
 10
17.5277214796
 20
14.0867694791
 30
0.0
 10
17.5264651975
 20
14.0900893847
 30
0.0
 10
17.5256948934
 20
14.0916587186
 30
0.0
  0
SPLINE
  5
3F2
100
AcDbEntity
  8
02___PRT_ALL_AXES
100
AcDbSpline
 62
7
  6
BYLAYER
 70
0
 71
3
 72
11
 73
7
 74
0
 42
0.0000001
 43
0.0000001
 44
0.0000000001
 40
0.0
 40
0.0
 40
0.0
 40
0.0
 40
0.2644280716
 40
0.5170829352
 40
0.7609159252
 40
1.0
 40
1.0
 40
1.0
 40
1.0
 10
18.038672141
 20
14.0680566281
 30
0.0
 10
18.0393014234
 20
14.0700929866
 30
0.0
 10
18.0402231634
 20
14.0741811091
 30
0.0
 10
18.0405002058
 20
14.080342306
 30
0.0
 10
18.0396240116
 20
14.0862441899
 30
0.0
 10
18.0382706853
 20
14.0899287881
 30
0.0
 10
18.03742155
 20
14.0916587176
 30
0.0
  0
SPLINE
  5
3F3
100
AcDbEntity
  8
0
100
AcDbSpline
 62
7
  6
BYLAYER
 70
0
 71
3
 72
14
 73
10
 74
0
 42
0.0000001
 43
0.0000001
 44
0.0000000001
 40
0.0
 40
0.0
 40
0.0
 40
0.0
 40
0.2766772936
 40
0.4077619566
 40
0.5338663522
 40
0.655342527
 40
0.77284791
 40
0.8873345152
 40
1.0
 40
1.0
 40
1.0
 40
1.0
 10
17.6229960533
 20
13.7105749133
 30
0.0
 10
17.6106263292
 20
13.7105749133
 30
0.0
 10
17.5922948539
 20
13.7123265977
 30
0.0
 10
17.5692402091
 20
13.7186733813
 30
0.0
 10
17.5535482386
 20
13.7251548503
 30
0.0
 10
17.539378632
 20
13.7333594158
 30
0.0
 10
17.5269269589
 20
13.7431850603
 30
0.0
 10
17.5163773405
 20
13.7544978164
 30
0.0
 10
17.5106879449
 20
13.7629727388
 30
0.0
 10
17.5082296693
 20
13.7673692015
 30
0.0
  0
SPLINE
  5
3F4
100
AcDbEntity
  8
02___PRT_ALL_AXES
100
AcDbSpline
 62
7
  6
BYLAYER
 70
0
 71
3
 72
15
 73
11
 74
0
 42
0.0000001
 43
0.0000001
 44
0.0000000001
 40
0.0
 40
0.0
 40
0.0
 40
0.0
 40
0.2820268498
 40
0.4193158716
 40
0.5504118022
 40
0.6736733772
 40
0.788658105
 40
0.8964479197
 40
0.9485609064
 40
1.0
 40
1.0
 40
1.0
 40
1.0
 10
17.9857105662
 20
12.7708775714
 30
0.0
 10
17.9815693121
 20
12.768234279
 30
0.0
 10
17.9747514083
 20
12.7652134898
 30
0.0
 10
17.9652934916
 20
12.7634660237
 30
0.0
 10
17.9584338441
 20
12.7633665039
 30
0.0
 10
17.952054241
 20
12.7644864513
 30
0.0
 10
17.9464282646
 20
12.7667926349
 30
0.0
 10
17.9425345763
 20
12.769686603
 30
0.0
 10
17.9401019658
 20
12.7724641002
 30
0.0
 10
17.9391168387
 20
12.7739845064
 30
0.0
 10
17.9386863182
 20
12.7747703832
 30
0.0
  0
SPLINE
  5
3F5
100
AcDbEntity
  8
0
100
AcDbSpline
 62
7
  6
BYLAYER
 70
0
 71
3
 72
19
 73
15
 74
0
 42
0.0000001
 43
0.0000001
 44
0.0000000001
 40
0.0
 40
0.0
 40
0.0
 40
0.0
 40
0.1204193417
 40
0.1851253789
 40
0.2521817657
 40
0.3904820942
 40
0.5294379082
 40
0.597269888
 40
0.6629868272
 40
0.7858251384
 40
0.8428886736
 40
0.8971677059
 40
0.9492435946
 40
1.0
 40
1.0
 40
1.0
 40
1.0
 10
17.5072028028
 20
13.1461751263
 30
0.0
 10
17.5062698649
 20
13.143156138
 30
0.0
 10
17.504006194
 20
13.1387478802
 30
0.0
 10
17.4998648515
 20
13.1335758018
 30
0.0
 10
17.4947604009
 20
13.1286333812
 30
0.0
 10
17.4871825813
 20
13.1235613948
 30
0.0
 10
17.4786556173
 20
13.1202780797
 30
0.0
 10
17.4716192478
 20
13.1189111923
 30
0.0
 10
17.4648975579
 20
13.1184485879
 30
0.0
 10
17.4583927222
 20
13.1192656548
 30
0.0
 10
17.4526407367
 20
13.1215019472
 30
0.0
 10
17.4489624464
 20
13.123756876
 30
0.0
 10
17.4459180573
 20
13.1265774144
 30
0.0
 10
17.4443557722
 20
13.1288080024
 30
0.0
 10
17.4437158741
 20
13.1299760794
 30
0.0
  0
SPLINE
  5
3F6
100
AcDbEntity
  8
0
100
AcDbSpline
 62
7
  6
BYLAYER
 70
0
 71
3
 72
22
 73
18
 74
0
 42
0.0000001
 43
0.0000001
 44
0.0000000001
 40
0.0
 40
0.0
 40
0.0
 40
0.0
 40
0.1726683052
 40
0.2539488687
 40
0.3316731701
 40
0.4057402338
 40
0.4760833898
 40
0.5426771659
 40
0.6055428877
 40
0.6647575313
 40
0.7204634004
 40
0.7728804395
 40
0.8223181633
 40
0.8691857027
 40
0.9139978723
 40
0.9573703817
 40
1.0
 40
1.0
 40
1.0
 40
1.0
 10
18.0171044524
 20
12.912627381
 30
0.0
 10
18.0217918999
 20
12.9277959666
 30
0.0
 10
18.0293841853
 20
12.94990434
 30
0.0
 10
18.040936368
 20
12.9781347806
 30
0.0
 10
18.0498662494
 20
12.9976235229
 30
0.0
 10
18.059208007
 20
13.01579509
 30
0.0
 10
18.0689331344
 20
13.0325931717
 30
0.0
 10
18.0790118924
 20
13.0479655002
 30
0.0
 10
18.0894139858
 20
13.0618645868
 30
0.0
 10
18.1001087114
 20
13.0742474097
 30
0.0
 10
18.1110655581
 20
13.0850750252
 30
0.0
 10
18.1222538838
 20
13.094312427
 30
0.0
 10
18.1336429295
 20
13.1019278757
 30
0.0
 10
18.14520079
 20
13.1078917211
 30
0.0
 10
18.1568938561
 20
13.1121766382
 30
0.0
 10
18.168679389
 20
13.1147592175
 30
0.0
 10
18.1765985397
 20
13.1153362051
 30
0.0
 10
18.1805182069
 20
13.115336316
 30
0.0
  0
SPLINE
  5
3F7
100
AcDbEntity
  8
0
100
AcDbSpline
 62
7
  6
BYLAYER
 70
0
 71
3
 72
34
 73
30
 74
0
 42
0.0000001
 43
0.0000001
 44
0.0000000001
 40
0.0
 40
0.0
 40
0.0
 40
0.0
 40
0.0330539335
 40
0.0673902152
 40
0.1028825463
 40
0.1393991652
 40
0.2149202482
 40
0.292752162
 40
0.3716152489
 40
0.4110281132
 40
0.4502075599
 40
0.527212806
 40
0.6013830851
 40
0.6370401924
 40
0.6715596943
 40
0.7048163077
 40
0.7366961581
 40
0.767098813
 40
0.7959396934
 40
0.8231529739
 40
0.8486952432
 40
0.8725501799
 40
0.8947345655
 40
0.9153059419
 40
0.9343719936
 40
0.9521009166
 40
0.9687305985
 40
0.9845719673
 40
1.0
 40
1.0
 40
1.0
 40
1.0
 10
18.0171044524
 20
12.912627381
 30
0.0
 10
18.0140132295
 20
12.90262418
 30
0.0
 10
18.0081316738
 20
12.8820976801
 30
0.0
 10
18.0003280448
 20
12.8504507116
 30
0.0
 10
17.993403217
 20
12.8174781405
 30
0.0
 10
17.985297884
 20
12.7714489227
 30
0.0
 10
17.9776511058
 20
12.7117553565
 30
0.0
 10
17.9724799467
 20
12.6383463946
 30
0.0
 10
17.9715106578
 20
12.5762024367
 30
0.0
 10
17.9727660445
 20
12.5263384067
 30
0.0
 10
17.9753604703
 20
12.4771152964
 30
0.0
 10
17.9810320087
 20
12.4170531997
 30
0.0
 10
17.9900480501
 20
12.3585227409
 30
0.0
 10
17.9992182651
 20
12.3137217399
 30
0.0
 10
18.0068909933
 20
12.2818627404
 30
0.0
 10
18.0154102759
 20
12.2514597677
 30
0.0
 10
18.0247346946
 20
12.2226605624
 30
0.0
 10
18.0348186266
 20
12.1956049705
 30
0.0
 10
18.0456130872
 20
12.1704238307
 30
0.0
 10
18.057066079
 20
12.1472383663
 30
0.0
 10
18.069123194
 20
12.1261595492
 30
0.0
 10
18.0817283576
 20
12.107287656
 30
0.0
 10
18.0948248219
 20
12.0907121515
 30
0.0
 10
18.108356203
 20
12.0765122361
 30
0.0
 10
18.1222675348
 20
12.0647584433
 30
0.0
 10
18.1365038187
 20
12.0555157058
 30
0.0
 10
18.1510091836
 20
12.0488468196
 30
0.0
 10
18.1657077818
 20
12.0448124461
 30
0.0
 10
18.1756343892
 20
12.0439076276
 30
0.0
 10
18.1805212694
 20
12.0439077658
 30
0.0
  0
SPLINE
  5
3F8
100
AcDbEntity
  8
02___PRT_ALL_AXES
100
AcDbSpline
 62
7
  6
BYLAYER
 70
0
 71
3
 72
11
 73
7
 74
0
 42
0.0000001
 43
0.0000001
 44
0.0000000001
 40
0.0
 40
0.0
 40
0.0
 40
0.0
 40
0.2464915919
 40
0.5000011483
 40
0.753511512
 40
1.0
 40
1.0
 40
1.0
 40
1.0
 10
17.8924085196
 20
13.61329244
 30
0.0
 10
17.8882170429
 20
13.6129117559
 30
0.0
 10
17.8797757212
 20
13.6112856428
 30
0.0
 10
17.8677188454
 20
13.6066182077
 30
0.0
 10
17.8566494485
 20
13.5999382552
 30
0.0
 10
17.8501982477
 20
13.5942566392
 30
0.0
 10
17.8473321937
 20
13.5911746454
 30
0.0
  0
SPLINE
  5
3F9
100
AcDbEntity
  8
02___PRT_ALL_AXES
100
AcDbSpline
 62
7
  6
BYLAYER
 70
0
 71
3
 72
11
 73
7
 74
0
 42
0.0000001
 43
0.0000001
 44
0.0000000001
 40
0.0
 40
0.0
 40
0.0
 40
0.0
 40
0.2464915919
 40
0.5000011483
 40
0.753511512
 40
1.0
 40
1.0
 40
1.0
 40
1.0
 10
17.5151700127
 20
14.0484962591
 30
0.0
 10
17.510978536
 20
14.0481155749
 30
0.0
 10
17.5025372143
 20
14.0464894618
 30
0.0
 10
17.4904803386
 20
14.0418220267
 30
0.0
 10
17.4794109417
 20
14.0351420742
 30
0.0
 10
17.4729597409
 20
14.0294604582
 30
0.0
 10
17.4700936869
 20
14.0263784644
 30
0.0
  0
SPLINE
  5
3FA
100
AcDbEntity
  8
0
100
AcDbSpline
 62
7
  6
BYLAYER
 70
0
 71
3
 72
31
 73
27
 74
0
 42
0.0000001
 43
0.0000001
 44
0.0000000001
 40
0.0
 40
0.0
 40
0.0
 40
0.0
 40
0.0155006459
 40
0.0315033822
 40
0.0484546371
 40
0.0667109892
 40
0.0865313027
 40
0.10808554
 40
0.1314693035
 40
0.1567186535
 40
0.18382257
 40
0.2127323091
 40
0.2433682335
 40
0.2756256102
 40
0.3444718938
 40
0.4180908226
 40
0.4950894771
 40
0.5739485634
 40
0.6530827198
 40
0.7308969124
 40
0.8058425994
 40
0.8764763492
 40
0.909777144
 40
0.9415396081
 40
0.9716486497
 40
1.0
 40
1.0
 40
1.0
 40
1.0
 10
18.2792041177
 20
12.7939076922
 30
0.0
 10
18.2770480196
 20
12.7939076198
 30
0.0
 10
18.2726543776
 20
12.7934648377
 30
0.0
 10
18.2661699042
 20
12.7914957756
 30
0.0
 10
18.259792665
 20
12.7882495712
 30
0.0
 10
18.2535605561
 20
12.7837623681
 30
0.0
 10
18.2475009535
 20
12.7780696568
 30
0.0
 10
18.2416419867
 20
12.7712077706
 30
0.0
 10
18.2360123739
 20
12.7632169191
 30
0.0
 10
18.2306417883
 20
12.754142862
 30
0.0
 10
18.2255599709
 20
12.7440375721
 30
0.0
 10
18.2207961188
 20
12.73295941
 30
0.0
 10
18.2163776225
 20
12.7209728677
 30
0.0
 10
18.2108625495
 20
12.7034919135
 30
0.0
 10
18.2050804933
 20
12.6798566987
 30
0.0
 10
18.2000041378
 20
12.6497319193
 30
0.0
 10
18.1967709972
 20
12.6179548184
 30
0.0
 10
18.1954590952
 20
12.5852747316
 30
0.0
 10
18.1961006606
 20
12.5524613322
 30
0.0
 10
18.1986797378
 20
12.5202878195
 30
0.0
 10
18.203134257
 20
12.4895134581
 30
0.0
 10
18.2084170314
 20
12.4651718367
 30
0.0
 10
18.2135537224
 20
12.447003881
 30
0.0
 10
18.2177193824
 20
12.4344328717
 30
0.0
 10
18.2222484878
 20
12.4227233491
 30
0.0
 10
18.2255961669
 20
12.415306566
 30
0.0
 10
18.2273334896
 20
12.4117662746
 30
0.0
  0
SPLINE
  5
3FB
100
AcDbEntity
  8
02___PRT_ALL_AXES
100
AcDbSpline
 62
7
  6
BYLAYER
 70
0
 71
3
 72
20
 73
16
 74
0
 42
0.0000001
 43
0.0000001
 44
0.0000000001
 40
0.0
 40
0.0
 40
0.0
 40
0.0
 40
0.0507340861
 40
0.1026058865
 40
0.1565727167
 40
0.2132905237
 40
0.3355486832
 40
0.4011150499
 40
0.4689001405
 40
0.6080360695
 40
0.6779865412
 40
0.7469988219
 40
0.8143002031
 40
0.879238256
 40
1.0
 40
1.0
 40
1.0
 40
1.0
 10
17.9412376255
 20
14.0444545386
 30
0.0
 10
17.942142027
 20
14.0426120161
 30
0.0
 10
17.9443943234
 20
14.0390778948
 30
0.0
 10
17.9489026447
 20
14.0345650188
 30
0.0
 10
17.9544286505
 20
14.0309213042
 30
0.0
 10
17.9631547253
 20
14.0272492317
 30
0.0
 10
17.9731214881
 20
14.0257930607
 30
0.0
 10
17.9834640201
 20
14.0263429986
 30
0.0
 10
17.9943374918
 20
14.0283068733
 30
0.0
 10
18.0049415956
 20
14.0322699033
 30
0.0
 10
18.0146799986
 20
14.0379403146
 30
0.0
 10
18.0213736944
 20
14.0429560599
 30
0.0
 10
18.0272715696
 20
14.0486041958
 30
0.0
 10
18.0337114075
 20
14.0565759662
 30
0.0
 10
18.0372296849
 20
14.0633888385
 30
0.0
 10
18.038672141
 20
14.0680566281
 30
0.0
  0
SPLINE
  5
3FC
100
AcDbEntity
  8
02___PRT_ALL_AXES
100
AcDbSpline
 62
7
  6
BYLAYER
 70
0
 71
3
 72
11
 73
7
 74
0
 42
0.0000001
 43
0.0000001
 44
0.0000000001
 40
0.0
 40
0.0
 40
0.0
 40
0.0
 40
0.2464859593
 40
0.499996602
 40
0.7535093246
 40
1.0
 40
1.0
 40
1.0
 40
1.0
 10
18.0268965801
 20
14.0484962933
 30
0.0
 10
18.0227052284
 20
14.0481155309
 30
0.0
 10
18.01426402
 20
14.0464895492
 30
0.0
 10
18.0022072338
 20
14.0418221324
 30
0.0
 10
17.9911377872
 20
14.0351422139
 30
0.0
 10
17.9846865364
 20
14.0294605986
 30
0.0
 10
17.9818204626
 20
14.0263786012
 30
0.0
  0
SPLINE
  5
3FD
100
AcDbEntity
  8
02___PRT_ALL_AXES
100
AcDbSpline
 62
7
  6
BYLAYER
 70
0
 71
3
 72
14
 73
10
 74
0
 42
0.0000001
 43
0.0000001
 44
0.0000000001
 40
0.0
 40
0.0
 40
0.0
 40
0.0
 40
0.1128399572
 40
0.2271853011
 40
0.3443969944
 40
0.4655774191
 40
0.5915072796
 40
0.722607523
 40
1.0
 40
1.0
 40
1.0
 40
1.0
 10
17.4295109647
 20
14.0444545375
 30
0.0
 10
17.430202506
 20
14.0430456665
 30
0.0
 10
17.4318388553
 20
14.0403218675
 30
0.0
 10
17.4349687632
 20
14.036668686
 30
0.0
 10
17.4387310041
 20
14.0334883696
 30
0.0
 10
17.4430645711
 20
14.0308281621
 30
0.0
 10
17.44790402
 20
14.0287241735
 30
0.0
 10
17.4550606549
 20
14.0266603241
 30
0.0
 10
17.4607769596
 20
14.0260926865
 30
0.0
 10
17.4646350903
 20
14.0260926865
 30
0.0
  0
SPLINE
  5
3FE
100
AcDbEntity
  8
02___PRT_ALL_AXES
100
AcDbSpline
 62
7
  6
BYLAYER
 70
0
 71
3
 72
11
 73
7
 74
0
 42
0.0000001
 43
0.0000001
 44
0.0000000001
 40
0.0
 40
0.0
 40
0.0
 40
0.0
 40
0.2464859593
 40
0.499996602
 40
0.7535093246
 40
1.0
 40
1.0
 40
1.0
 40
1.0
 10
17.3806817695
 20
13.6132924743
 30
0.0
 10
17.3764904177
 20
13.6129117118
 30
0.0
 10
17.3680492094
 20
13.6112857301
 30
0.0
 10
17.3559924231
 20
13.6066183133
 30
0.0
 10
17.3449229766
 20
13.5999383949
 30
0.0
 10
17.3384717258
 20
13.5942567796
 30
0.0
 10
17.335605652
 20
13.5911747822
 30
0.0
  0
SPLINE
  5
3FF
100
AcDbEntity
  8
02___PRT_ALL_AXES
100
AcDbSpline
 62
7
  6
BYLAYER
 70
0
 71
3
 72
20
 73
16
 74
0
 42
0.0000001
 43
0.0000001
 44
0.0000000001
 40
0.0
 40
0.0
 40
0.0
 40
0.0
 40
0.0507340861
 40
0.1026058865
 40
0.1565727167
 40
0.2132905237
 40
0.3355486832
 40
0.4011150499
 40
0.4689001405
 40
0.6080360695
 40
0.6779865412
 40
0.7469988219
 40
0.8143002031
 40
0.879238256
 40
1.0
 40
1.0
 40
1.0
 40
1.0
 10
17.2950228149
 20
13.6092507195
 30
0.0
 10
17.2959272164
 20
13.6074081971
 30
0.0
 10
17.2981795128
 20
13.6038740758
 30
0.0
 10
17.3026878341
 20
13.5993611998
 30
0.0
 10
17.3082138398
 20
13.5957174852
 30
0.0
 10
17.3169399147
 20
13.5920454127
 30
0.0
 10
17.3269066775
 20
13.5905892417
 30
0.0
 10
17.3372492094
 20
13.5911391796
 30
0.0
 10
17.3481226811
 20
13.5931030543
 30
0.0
 10
17.358726785
 20
13.5970660843
 30
0.0
 10
17.368465188
 20
13.6027364956
 30
0.0
 10
17.3751588837
 20
13.6077522409
 30
0.0
 10
17.381056759
 20
13.6134003768
 30
0.0
 10
17.3874965969
 20
13.6213721472
 30
0.0
 10
17.3910148743
 20
13.6281850195
 30
0.0
 10
17.3924573304
 20
13.632852809
 30
0.0
  0
SPLINE
  5
400
100
AcDbEntity
  8
02___PRT_ALL_AXES
100
AcDbSpline
 62
7
  6
BYLAYER
 70
0
 71
3
 72
14
 73
10
 74
0
 42
0.0000001
 43
0.0000001
 44
0.0000000001
 40
0.0
 40
0.0
 40
0.0
 40
0.0
 40
0.1128399572
 40
0.2271853011
 40
0.3443969944
 40
0.4655774191
 40
0.5915072796
 40
0.722607523
 40
1.0
 40
1.0
 40
1.0
 40
1.0
 10
17.8067494715
 20
13.6092507185
 30
0.0
 10
17.8074410128
 20
13.6078418474
 30
0.0
 10
17.8090773621
 20
13.6051180485
 30
0.0
 10
17.81220727
 20
13.601464867
 30
0.0
 10
17.8159695109
 20
13.5982845506
 30
0.0
 10
17.820303078
 20
13.5956243431
 30
0.0
 10
17.8251425268
 20
13.5935203545
 30
0.0
 10
17.8322991618
 20
13.591456505
 30
0.0
 10
17.8380154664
 20
13.5908888675
 30
0.0
 10
17.8418735971
 20
13.5908888675
 30
0.0
  0
SPLINE
  5
401
100
AcDbEntity
  8
0
100
AcDbSpline
 62
7
  6
BYLAYER
 70
0
 71
3
 72
21
 73
17
 74
0
 42
0.0000001
 43
0.0000001
 44
0.0000000001
 40
0.0
 40
0.0
 40
0.0
 40
0.0
 40
0.0563221315
 40
0.1128352314
 40
0.1697255507
 40
0.2271701227
 40
0.2853328965
 40
0.3443614925
 40
0.4043845705
 40
0.4655101482
 40
0.5278247835
 40
0.591393121
 40
0.6562577625
 40
0.7224408158
 40
0.8586904836
 40
1.0
 40
1.0
 40
1.0
 40
1.0
 10
17.2474245502
 20
13.5689109784
 30
0.0
 10
17.2506486218
 20
13.5623409507
 30
0.0
 10
17.2576672833
 20
13.5494448931
 30
0.0
 10
17.2698147257
 20
13.5310084101
 30
0.0
 10
17.2835449163
 20
13.5135311154
 30
0.0
 10
17.2988045323
 20
13.4970799789
 30
0.0
 10
17.3155359002
 20
13.4817154997
 30
0.0
 10
17.3336758124
 20
13.4674945885
 30
0.0
 10
17.3531559451
 20
13.4544692742
 30
0.0
 10
17.3739031834
 20
13.4426868845
 30
0.0
 10
17.3958402031
 20
13.432190188
 30
0.0
 10
17.4188852966
 20
13.4230173461
 30
0.0
 10
17.4429536242
 20
13.4152009767
 30
0.0
 10
17.4766095622
 20
13.4065433144
 30
0.0
 10
17.5207989619
 20
13.3993510128
 30
0.0
 10
17.5568957617
 20
13.3975182812
 30
0.0
 10
17.5752574333
 20
13.3975182812
 30
0.0
  0
SPLINE
  5
402
100
AcDbEntity
  8
0
100
AcDbSpline
 62
7
  6
BYLAYER
 70
0
 71
3
 72
27
 73
23
 74
0
 42
0.0000001
 43
0.0000001
 44
0.0000000001
 40
0.0
 40
0.0
 40
0.0
 40
0.0
 40
0.0251966131
 40
0.0504990195
 40
0.0760097768
 40
0.1018251931
 40
0.1280327456
 40
0.1547090525
 40
0.1819184329
 40
0.2097120391
 40
0.2671515675
 40
0.3272120728
 40
0.3898384612
 40
0.4548054139
 40
0.5217486591
 40
0.5901965036
 40
0.6596008497
 40
0.729367195
 40
0.7988838542
 40
0.833370641
 40
0.8675728102
 40
1.0
 40
1.0
 40
1.0
 40
1.0
 10
18.1451566399
 20
14.0094524935
 30
0.0
 10
18.1487469867
 20
14.0021360686
 30
0.0
 10
18.1552568726
 20
13.9871244299
 30
0.0
 10
18.1628956903
 20
13.9637201513
 30
0.0
 10
18.1683849294
 20
13.9395139282
 30
0.0
 10
18.1716990708
 20
13.9146218388
 30
0.0
 10
18.1728247868
 20
13.8891592537
 30
0.0
 10
18.1717588133
 20
13.8632448216
 30
0.0
 10
18.1685075673
 20
13.8369967613
 30
0.0
 10
18.1612044629
 20
13.8013355571
 30
0.0
 10
18.1465310984
 20
13.7564989742
 30
0.0
 10
18.1209110079
 20
13.7039920395
 30
0.0
 10
18.0875710315
 20
13.6530926599
 30
0.0
 10
18.0471301094
 20
13.6047141742
 30
0.0
 10
18.0003254019
 20
13.5597156009
 30
0.0
 10
17.9480064988
 20
13.5189032704
 30
0.0
 10
17.8911201844
 20
13.4830096711
 30
0.0
 10
17.8306983979
 20
13.4526834711
 30
0.0
 10
17.7781579564
 20
13.432448113
 30
0.0
 10
17.7353394149
 20
13.4195314758
 30
0.0
 10
17.6721991422
 20
13.4039056102
 30
0.0
 10
17.6180912331
 20
13.3975182812
 30
0.0
 10
17.5752574333
 20
13.3975182812
 30
0.0
  0
SPLINE
  5
403
100
AcDbEntity
  8
02___PRT_ALL_AXES
100
AcDbSpline
 62
7
  6
BYLAYER
 70
0
 71
3
 72
15
 73
11
 74
0
 42
0.0000001
 43
0.0000001
 44
0.0000000001
 40
0.0
 40
0.0
 40
0.0
 40
0.0
 40
0.0858514607
 40
0.1774209735
 40
0.2792207128
 40
0.3941366111
 40
0.523634043
 40
0.6680989617
 40
0.827213888
 40
1.0
 40
1.0
 40
1.0
 40
1.0
 10
18.445004508
 20
12.6822010615
 30
0.0
 10
18.4442156987
 20
12.6822011847
 30
0.0
 10
18.4425773057
 20
12.6819560425
 30
0.0
 10
18.4402159378
 20
12.6808891511
 30
0.0
 10
18.4379461389
 20
12.6791628711
 30
0.0
 10
18.4357847102
 20
12.6768117187
 30
0.0
 10
18.4337469271
 20
12.6738659275
 30
0.0
 10
18.4318522656
 20
12.6703594861
 30
0.0
 10
18.4301224878
 20
12.6663338204
 30
0.0
 10
18.4291308613
 20
12.6634470072
 30
0.0
 10
18.4286621352
 20
12.6619302089
 30
0.0
  0
SPLINE
  5
404
100
AcDbEntity
  8
02___PRT_ALL_AXES
100
AcDbSpline
 62
7
  6
BYLAYER
 70
0
 71
3
 72
25
 73
21
 74
0
 42
0.0000001
 43
0.0000001
 44
0.0000000001
 40
0.0
 40
0.0
 40
0.0
 40
0.0
 40
0.0155034836
 40
0.0315088859
 40
0.0484627513
 40
0.0667217116
 40
0.1080391413
 40
0.1566409263
 40
0.2126384539
 40
0.2755247381
 40
0.344383399
 40
0.4180159583
 40
0.4950291248
 40
0.5739033578
 40
0.6530528788
 40
0.7308823758
 40
0.8058427414
 40
0.876490919
 40
0.9415505141
 40
1.0
 40
1.0
 40
1.0
 40
1.0
 10
18.2982901605
 20
12.2074332571
 30
0.0
 10
18.2977511313
 20
12.2074333424
 30
0.0
 10
18.2966527013
 20
12.2073227384
 30
0.0
 10
18.2950315578
 20
12.2068306652
 30
0.0
 10
18.2934371163
 20
12.2060193444
 30
0.0
 10
18.2912710461
 20
12.2044592174
 30
0.0
 10
18.2886956134
 20
12.2016699399
 30
0.0
 10
18.2859766842
 20
12.1973663575
 30
0.0
 10
18.2835460372
 20
12.1920592725
 30
0.0
 10
18.281457643
 20
12.185865179
 30
0.0
 10
18.279758435
 20
12.178922095
 30
0.0
 10
18.2784893383
 20
12.1713904866
 30
0.0
 10
18.2776809388
 20
12.1634462056
 30
0.0
 10
18.2773529145
 20
12.155276023
 30
0.0
 10
18.2775132297
 20
12.1470724977
 30
0.0
 10
18.2781580134
 20
12.1390290134
 30
0.0
 10
18.2792715039
 20
12.131334989
 30
0.0
 10
18.2808269414
 20
12.124170232
 30
0.0
 10
18.2827863122
 20
12.1177024488
 30
0.0
 10
18.2844262123
 20
12.1137222893
 30
0.0
 10
18.2853214775
 20
12.1118979307
 30
0.0
  0
SPLINE
  5
405
100
AcDbEntity
  8
02___PRT_ALL_AXES
100
AcDbSpline
 62
7
  6
BYLAYER
 70
0
 71
3
 72
15
 73
11
 74
0
 42
0.0000001
 43
0.0000001
 44
0.0000000001
 40
0.0
 40
0.0
 40
0.0
 40
0.0
 40
0.0858514607
 40
0.1774209735
 40
0.2792207128
 40
0.3941366111
 40
0.523634043
 40
0.6680989617
 40
0.827213888
 40
1.0
 40
1.0
 40
1.0
 40
1.0
 10
18.1134068698
 20
12.5841857936
 30
0.0
 10
18.1126180605
 20
12.5841859168
 30
0.0
 10
18.1109796675
 20
12.5839407746
 30
0.0
 10
18.1086182996
 20
12.5828738832
 30
0.0
 10
18.1063485007
 20
12.5811476033
 30
0.0
 10
18.104187072
 20
12.5787964508
 30
0.0
 10
18.1021492889
 20
12.5758506596
 30
0.0
 10
18.1002546274
 20
12.5723442183
 30
0.0
 10
18.0985248496
 20
12.5683185525
 30
0.0
 10
18.0975332231
 20
12.5654317394
 30
0.0
 10
18.097064497
 20
12.563914941
 30
0.0
  0
SPLINE
  5
406
100
AcDbEntity
  8
02___PRT_ALL_AXES
100
AcDbSpline
 62
7
  6
BYLAYER
 70
0
 71
3
 72
25
 73
21
 74
0
 42
0.0000001
 43
0.0000001
 44
0.0000000001
 40
0.0
 40
0.0
 40
0.0
 40
0.0
 40
0.0155034836
 40
0.0315088859
 40
0.0484627513
 40
0.0667217116
 40
0.1080391413
 40
0.1566409263
 40
0.2126384539
 40
0.2755247381
 40
0.344383399
 40
0.4180159583
 40
0.4950291248
 40
0.5739033578
 40
0.6530528788
 40
0.7308823758
 40
0.8058427414
 40
0.876490919
 40
0.9415505141
 40
1.0
 40
1.0
 40
1.0
 40
1.0
 10
18.2601212173
 20
13.0589535944
 30
0.0
 10
18.2595821881
 20
13.0589536797
 30
0.0
 10
18.2584837582
 20
13.0588430757
 30
0.0
 10
18.2568626146
 20
13.0583510025
 30
0.0
 10
18.2552681731
 20
13.0575396817
 30
0.0
 10
18.253102103
 20
13.0559795547
 30
0.0
 10
18.2505266702
 20
13.0531902772
 30
0.0
 10
18.2478077411
 20
13.0488866948
 30
0.0
 10
18.2453770941
 20
13.0435796098
 30
0.0
 10
18.2432886998
 20
13.0373855163
 30
0.0
 10
18.2415894918
 20
13.0304424323
 30
0.0
 10
18.2403203951
 20
13.0229108239
 30
0.0
 10
18.2395119957
 20
13.0149665429
 30
0.0
 10
18.2391839713
 20
13.0067963603
 30
0.0
 10
18.2393442865
 20
12.998592835
 30
0.0
 10
18.2399890702
 20
12.9905493507
 30
0.0
 10
18.2411025608
 20
12.9828553263
 30
0.0
 10
18.2426579983
 20
12.9756905692
 30
0.0
 10
18.244617369
 20
12.969222786
 30
0.0
 10
18.2462572691
 20
12.9652426266
 30
0.0
 10
18.2471525343
 20
12.963418268
 30
0.0
  0
SPLINE
  5
407
100
AcDbEntity
  8
0
100
AcDbSpline
 62
7
  6
BYLAYER
 70
0
 71
3
 72
34
 73
30
 74
0
 42
0.0000001
 43
0.0000001
 44
0.0000000001
 40
0.0
 40
0.0
 40
0.0
 40
0.0
 40
0.0154280327
 40
0.0312694015
 40
0.0478990834
 40
0.0656280064
 40
0.0846940581
 40
0.1052654345
 40
0.1274498201
 40
0.1513047568
 40
0.1768470261
 40
0.2040603066
 40
0.232901187
 40
0.2633038419
 40
0.2951836923
 40
0.3284403057
 40
0.3629598076
 40
0.3986169149
 40
0.472787194
 40
0.5497924401
 40
0.5889718868
 40
0.6283847511
 40
0.707247838
 40
0.7850797518
 40
0.8606008348
 40
0.8971174537
 40
0.9326097848
 40
0.9669460665
 40
1.0
 40
1.0
 40
1.0
 40
1.0
 10
18.2792033134
 20
13.115336316
 30
0.0
 10
18.2840901935
 20
13.1153364542
 30
0.0
 10
18.294016801
 20
13.1144316358
 30
0.0
 10
18.3087153992
 20
13.1103972622
 30
0.0
 10
18.3232207641
 20
13.103728376
 30
0.0
 10
18.337457048
 20
13.0944856385
 30
0.0
 10
18.3513683798
 20
13.0827318457
 30
0.0
 10
18.3648997609
 20
13.0685319303
 30
0.0
 10
18.3779962252
 20
13.0519564258
 30
0.0
 10
18.3906013887
 20
13.0330845326
 30
0.0
 10
18.4026585038
 20
13.0120057155
 30
0.0
 10
18.4141114956
 20
12.9888202512
 30
0.0
 10
18.4249059562
 20
12.9636391113
 30
0.0
 10
18.4349898882
 20
12.9365835194
 30
0.0
 10
18.4443143068
 20
12.9077843141
 30
0.0
 10
18.4528335894
 20
12.8773813414
 30
0.0
 10
18.4605063177
 20
12.8455223419
 30
0.0
 10
18.4696765327
 20
12.8007213409
 30
0.0
 10
18.4786925741
 20
12.7421908821
 30
0.0
 10
18.4843641125
 20
12.6821287854
 30
0.0
 10
18.4869585383
 20
12.6329056751
 30
0.0
 10
18.488213925
 20
12.5830416451
 30
0.0
 10
18.4872446361
 20
12.5208976872
 30
0.0
 10
18.482073477
 20
12.4474887253
 30
0.0
 10
18.4744266987
 20
12.3877951592
 30
0.0
 10
18.4663213658
 20
12.3417659413
 30
0.0
 10
18.459396538
 20
12.3087933702
 30
0.0
 10
18.451592909
 20
12.2771464017
 30
0.0
 10
18.4457113533
 20
12.2566199018
 30
0.0
 10
18.4426201303
 20
12.2466167008
 30
0.0
  0
SPLINE
  5
408
100
AcDbEntity
  8
0
100
AcDbSpline
 62
7
  6
BYLAYER
 70
0
 71
3
 72
22
 73
18
 74
0
 42
0.0000001
 43
0.0000001
 44
0.0000000001
 40
0.0
 40
0.0
 40
0.0
 40
0.0
 40
0.0426296183
 40
0.0860021277
 40
0.1308142973
 40
0.1776818367
 40
0.2271195605
 40
0.2795365996
 40
0.3352424687
 40
0.3944571123
 40
0.4573228341
 40
0.5239166102
 40
0.5942597662
 40
0.6683268299
 40
0.7460511313
 40
0.8273316948
 40
1.0
 40
1.0
 40
1.0
 40
1.0
 10
18.2792063759
 20
12.0439077658
 30
0.0
 10
18.2831260431
 20
12.0439078767
 30
0.0
 10
18.2910451937
 20
12.0444848643
 30
0.0
 10
18.3028307267
 20
12.0470674436
 30
0.0
 10
18.3145237928
 20
12.0513523607
 30
0.0
 10
18.3260816532
 20
12.0573162062
 30
0.0
 10
18.337470699
 20
12.0649316548
 30
0.0
 10
18.3486590247
 20
12.0741690566
 30
0.0
 10
18.3596158714
 20
12.0849966721
 30
0.0
 10
18.370310597
 20
12.097379495
 30
0.0
 10
18.3807126904
 20
12.1112785816
 30
0.0
 10
18.3907914484
 20
12.1266509101
 30
0.0
 10
18.4005165758
 20
12.1434489918
 30
0.0
 10
18.4098583334
 20
12.1616205589
 30
0.0
 10
18.4187882147
 20
12.1811093012
 30
0.0
 10
18.4303403975
 20
12.2093397418
 30
0.0
 10
18.4379326829
 20
12.2314481152
 30
0.0
 10
18.4426201303
 20
12.2466167008
 30
0.0
  0
SPLINE
  5
409
100
AcDbEntity
  8
0
100
AcDbSpline
 62
7
  6
BYLAYER
 70
0
 71
3
 72
11
 73
7
 74
0
 42
0.0000001
 43
0.0000001
 44
0.0000000001
 40
0.0
 40
0.0
 40
0.0
 40
0.0
 40
0.2389797704
 40
0.4831155349
 40
0.7359612905
 40
1.0
 40
1.0
 40
1.0
 40
1.0
 10
17.5067293047
 20
13.1608978984
 30
0.0
 10
17.5072078549
 20
13.1598004365
 30
0.0
 10
17.5079577659
 20
13.1574802115
 30
0.0
 10
17.5084043436
 20
13.1537995961
 30
0.0
 10
17.5081760914
 20
13.14997505
 30
0.0
 10
17.5075933569
 20
13.1474389598
 30
0.0
 10
17.5072028028
 20
13.1461751263
 30
0.0
  0
SPLINE
  5
40A
100
AcDbEntity
  8
0
100
AcDbSpline
 62
7
  6
BYLAYER
 70
0
 71
3
 72
12
 73
8
 74
0
 42
0.0000001
 43
0.0000001
 44
0.0000000001
 40
0.0
 40
0.0
 40
0.0
 40
0.0
 40
0.2589832744
 40
0.5103809386
 40
0.634062014
 40
0.7567241218
 40
1.0
 40
1.0
 40
1.0
 40
1.0
 10
17.3953296353
 20
13.1429115003
 30
0.0
 10
17.3942248314
 20
13.1393363534
 30
0.0
 10
17.3926044437
 20
13.1321011331
 30
0.0
 10
17.3922142925
 20
13.1228926045
 30
0.0
 10
17.3929508405
 20
13.115727591
 30
0.0
 10
17.3943646263
 20
13.1087877568
 30
0.0
 10
17.3962076988
 20
13.1037803915
 30
0.0
 10
17.3977562107
 20
13.1006248561
 30
0.0
  0
SPLINE
  5
40B
100
AcDbEntity
  8
0
100
AcDbSpline
 62
7
  6
BYLAYER
 70
0
 71
3
 72
22
 73
18
 74
0
 42
0.0000001
 43
0.0000001
 44
0.0000000001
 40
0.0
 40
0.0
 40
0.0
 40
0.0
 40
0.0541592441
 40
0.1089918974
 40
0.165124122
 40
0.2230789222
 40
0.2832016149
 40
0.3456072498
 40
0.4101694911
 40
0.4765407246
 40
0.5441971767
 40
0.6124941976
 40
0.7479689301
 40
0.8140574454
 40
0.8782625507
 40
0.9402697229
 40
1.0
 40
1.0
 40
1.0
 40
1.0
 10
17.5580654345
 20
13.179293197
 30
0.0
 10
17.5564463144
 20
13.182592617
 30
0.0
 10
17.5524545518
 20
13.1888990558
 30
0.0
 10
17.5445485774
 20
13.1969469393
 30
0.0
 10
17.5349934574
 20
13.2034079186
 30
0.0
 10
17.5241009204
 20
13.2081548377
 30
0.0
 10
17.5121686139
 20
13.2111347547
 30
0.0
 10
17.4994853837
 20
13.2123328899
 30
0.0
 10
17.4863392519
 20
13.2117627851
 30
0.0
 10
17.4730258101
 20
13.2094648554
 30
0.0
 10
17.4598428661
 20
13.2055063624
 30
0.0
 10
17.4429119597
 20
13.1981792336
 30
0.0
 10
17.4274260144
 20
13.1880260109
 30
0.0
 10
17.4143659514
 20
13.1755340051
 30
0.0
 10
17.4061492049
 20
13.1653425324
 30
0.0
 10
17.3996508978
 20
13.154478009
 30
0.0
 10
17.3965263732
 20
13.1467841454
 30
0.0
 10
17.3953296353
 20
13.1429115003
 30
0.0
  0
SPLINE
  5
40C
100
AcDbEntity
  8
02___PRT_ALL_AXES
100
AcDbSpline
 62
7
  6
BYLAYER
 70
0
 71
3
 72
14
 73
10
 74
0
 42
0.0000001
 43
0.0000001
 44
0.0000000001
 40
0.0
 40
0.0
 40
0.0
 40
0.0
 40
0.3152667198
 40
0.45425357
 40
0.5812298155
 40
0.6972333718
 40
0.8039363078
 40
0.9037966714
 40
1.0
 40
1.0
 40
1.0
 40
1.0
 10
18.311257155
 20
12.1958258138
 30
0.0
 10
18.3104115287
 20
12.1975490191
 30
0.0
 10
18.3090370347
 20
12.199967711
 30
0.0
 10
18.3068641393
 20
12.2027675979
 30
0.0
 10
18.3052392886
 20
12.204439546
 30
0.0
 10
18.3035602029
 20
12.2057606375
 30
0.0
 10
18.3018343434
 20
12.2067187024
 30
0.0
 10
18.300073309
 20
12.2073017164
 30
0.0
 10
18.2988758972
 20
12.2074331643
 30
0.0
 10
18.2982901605
 20
12.2074332571
 30
0.0
  0
SPLINE
  5
40D
100
AcDbEntity
  8
02___PRT_ALL_AXES
100
AcDbSpline
 62
7
  6
BYLAYER
 70
0
 71
3
 72
23
 73
19
 74
0
 42
0.0000001
 43
0.0000001
 44
0.0000000001
 40
0.0
 40
0.0
 40
0.0
 40
0.0
 40
0.0673998386
 40
0.1394233254
 40
0.2149688537
 40
0.2928262555
 40
0.4502670537
 40
0.5272978382
 40
0.6014929883
 40
0.6716829418
 40
0.7368287424
 40
0.7960756988
 40
0.8488254936
 40
0.8948444818
 40
0.9344383256
 40
0.9687198115
 40
0.9845667702
 40
1.0
 40
1.0
 40
1.0
 40
1.0
 10
18.4613451923
 20
12.5953291408
 30
0.0
 10
18.4619752994
 20
12.5973681681
 30
0.0
 10
18.4631027545
 20
12.6016416384
 30
0.0
 10
18.4643827727
 20
12.608331402
 30
0.0
 10
18.4652906451
 20
12.615415969
 30
0.0
 10
18.4659816647
 20
12.6252380159
 30
0.0
 10
18.4658708532
 20
12.6351508846
 30
0.0
 10
18.4649527519
 20
12.6448853861
 30
0.0
 10
18.4638843892
 20
12.6518191578
 30
0.0
 10
18.4624536851
 20
12.6583028983
 30
0.0
 10
18.4606886425
 20
12.664212647
 30
0.0
 10
18.4586233703
 20
12.6694367103
 30
0.0
 10
18.4562965581
 20
12.6738793425
 30
0.0
 10
18.4537445863
 20
12.6774626617
 30
0.0
 10
18.4510023521
 20
12.6801257498
 30
0.0
 10
18.4484968012
 20
12.6815585751
 30
0.0
 10
18.4464858623
 20
12.6821103831
 30
0.0
 10
18.4454931899
 20
12.6822009852
 30
0.0
 10
18.445004508
 20
12.6822010615
 30
0.0
  0
SPLINE
  5
40E
100
AcDbEntity
  8
0
100
AcDbSpline
 62
7
  6
BYLAYER
 70
0
 71
3
 72
11
 73
7
 74
0
 42
0.0000001
 43
0.0000001
 44
0.0000000001
 40
0.0
 40
0.0
 40
0.0
 40
0.0
 40
0.2413253042
 40
0.4882151609
 40
0.7411275945
 40
1.0
 40
1.0
 40
1.0
 40
1.0
 10
17.9403489386
 20
12.8609093328
 30
0.0
 10
17.938673287
 20
12.8492082303
 30
0.0
 10
17.9343729838
 20
12.8256553716
 30
0.0
 10
17.9250055935
 20
12.7905440951
 30
0.0
 10
17.9126135546
 20
12.755472508
 30
0.0
 10
17.9025617564
 20
12.7324837483
 30
0.0
 10
17.8971228095
 20
12.7210295275
 30
0.0
  0
SPLINE
  5
40F
100
AcDbEntity
  8
0
100
AcDbSpline
 62
7
  6
BYLAYER
 70
0
 71
3
 72
10
 73
6
 74
0
 42
0.0000001
 43
0.0000001
 44
0.0000000001
 40
0.0
 40
0.0
 40
0.0
 40
0.0
 40
0.2337374743
 40
0.4785648855
 40
1.0
 40
1.0
 40
1.0
 40
1.0
 10
18.0170320774
 20
13.1182317869
 30
0.0
 10
18.0203723481
 20
13.1115685511
 30
0.0
 10
18.0269117379
 20
13.0977738744
 30
0.0
 10
18.0394381151
 20
13.06844253
 30
0.0
 10
18.0478054177
 20
13.045458891
 30
0.0
 10
18.0530372612
 20
13.0296754987
 30
0.0
  0
SPLINE
  5
410
100
AcDbEntity
  8
02___PRT_ALL_AXES
100
AcDbSpline
 62
7
  6
BYLAYER
 70
0
 71
3
 72
20
 73
16
 74
0
 42
0.0000001
 43
0.0000001
 44
0.0000000001
 40
0.0
 40
0.0
 40
0.0
 40
0.0
 40
0.1370724222
 40
0.2794132898
 40
0.4194154265
 40
0.4869394607
 40
0.5522940744
 40
0.6152681841
 40
0.6757745196
 40
0.7338392319
 40
0.7896145397
 40
0.8434230175
 40
0.8958224485
 40
0.9476562911
 40
1.0
 40
1.0
 40
1.0
 40
1.0
 10
17.4567883658
 20
13.0690193703
 30
0.0
 10
17.4627574239
 20
13.0690193703
 30
0.0
 10
17.4749273267
 20
13.0694485663
 30
0.0
 10
17.4931193351
 20
13.0711649169
 30
0.0
 10
17.5081901762
 20
13.0734763833
 30
0.0
 10
17.5198282164
 20
13.0758888921
 30
0.0
 10
17.5281075691
 20
13.0779469199
 30
0.0
 10
17.5359924017
 20
13.0802931562
 30
0.0
 10
17.5434390982
 20
13.0829620961
 30
0.0
 10
17.5504026599
 20
13.0860050356
 30
0.0
 10
17.5568296964
 20
13.0894909058
 30
0.0
 10
17.562648781
 20
13.0935071443
 30
0.0
 10
17.5677579005
 20
13.0981563568
 30
0.0
 10
17.5720118317
 20
13.1035273566
 30
0.0
 10
17.5741408806
 20
13.1075697634
 30
0.0
 10
17.575008358
 20
13.109677639
 30
0.0
  0
SPLINE
  5
411
100
AcDbEntity
  8
02___PRT_ALL_AXES
100
AcDbSpline
 62
7
  6
BYLAYER
 70
0
 71
3
 72
13
 73
9
 74
0
 42
0.0000001
 43
0.0000001
 44
0.0000000001
 40
0.0
 40
0.0
 40
0.0
 40
0.0
 40
0.1141306026
 40
0.2315307068
 40
0.4765924831
 40
0.6041702311
 40
0.7343172445
 40
1.0
 40
1.0
 40
1.0
 40
1.0
 10
17.575008358
 20
13.109677639
 30
0.0
 10
17.5756535364
 20
13.111245352
 30
0.0
 10
17.5767413114
 20
13.1145216034
 30
0.0
 10
17.5780598564
 20
13.121493821
 30
0.0
 10
17.5780440548
 20
13.1288486856
 30
0.0
 10
17.5768944862
 20
13.1362349964
 30
0.0
 10
17.5749834535
 20
13.1437807807
 30
0.0
 10
17.5727958405
 20
13.1492759223
 30
0.0
 10
17.5710572356
 20
13.1528187271
 30
0.0
  0
SPLINE
  5
412
100
AcDbEntity
  8
0
100
AcDbSpline
 62
7
  6
BYLAYER
 70
0
 71
3
 72
11
 73
7
 74
0
 42
0.0000001
 43
0.0000001
 44
0.0000000001
 40
0.0
 40
0.0
 40
0.0
 40
0.0
 40
0.2858104128
 40
0.5386803825
 40
0.774099111
 40
1.0
 40
1.0
 40
1.0
 40
1.0
 10
17.6844966095
 20
13.3839943261
 30
0.0
 10
17.6924885074
 20
13.3854846649
 30
0.0
 10
17.7076410957
 20
13.3878667302
 30
0.0
 10
17.7296378633
 20
13.3894030737
 30
0.0
 10
17.7499783903
 20
13.3888005343
 30
0.0
 10
17.7630071222
 20
13.3869937615
 30
0.0
 10
17.7693116814
 20
13.3857525095
 30
0.0
  0
SPLINE
  5
413
100
AcDbEntity
  8
0
100
AcDbSpline
 62
7
  6
BYLAYER
 70
0
 71
3
 72
15
 73
11
 74
0
 42
0.0000001
 43
0.0000001
 44
0.0000000001
 40
0.0
 40
0.0
 40
0.0
 40
0.0
 40
0.1639842599
 40
0.315435485
 40
0.4543864559
 40
0.5813405284
 40
0.6973101785
 40
0.803985338
 40
0.9038199057
 40
1.0
 40
1.0
 40
1.0
 40
1.0
 10
18.3310761997
 20
12.7474778073
 30
0.0
 10
18.3293162716
 20
12.7510641636
 30
0.0
 10
18.3257043977
 20
12.7578558602
 30
0.0
 10
18.3197483155
 20
12.7672017824
 30
0.0
 10
18.3135021625
 20
12.7752463693
 30
0.0
 10
18.3070032752
 20
12.7819347774
 30
0.0
 10
18.3002857291
 20
12.7872187244
 30
0.0
 10
18.2933820294
 20
12.7910510518
 30
0.0
 10
18.286337142
 20
12.7933820276
 30
0.0
 10
18.2815472129
 20
12.7939077709
 30
0.0
 10
18.2792041177
 20
12.7939076922
 30
0.0
  0
LINE
  5
414
100
AcDbEntity
  8
0
100
AcDbLine
 62
7
  6
BYLAYER
 10
17.6605653808
 20
13.3790570095
 11
17.6844966095
 21
13.3839943261
  0
SPLINE
  5
415
100
AcDbEntity
  8
0
100
AcDbSpline
 62
7
  6
BYLAYER
 70
0
 71
3
 72
25
 73
21
 74
0
 42
0.0000001
 43
0.0000001
 44
0.0000000001
 40
0.0
 40
0.0
 40
0.0
 40
0.0
 40
0.0252722624
 40
0.0505929853
 40
0.0760710146
 40
0.1018102193
 40
0.1543943569
 40
0.2090329067
 40
0.2372829123
 40
0.2661842277
 40
0.3259606724
 40
0.3883813238
 40
0.4532398383
 40
0.520177429
 40
0.5887168791
 40
0.6582960106
 40
0.7283002145
 40
0.7980939507
 40
0.8670523257
 40
1.0
 40
1.0
 40
1.0
 40
1.0
 10
17.5082296693
 20
13.7673692015
 30
0.0
 10
17.5067845495
 20
13.7699537025
 30
0.0
 10
17.5041370657
 20
13.775269466
 30
0.0
 10
17.5009392698
 20
13.7836027767
 30
0.0
 10
17.4985308042
 20
13.7922554328
 30
0.0
 10
17.4963714248
 20
13.8042395746
 30
0.0
 10
17.4957373855
 20
13.8198939481
 30
0.0
 10
17.4978092856
 20
13.8357050709
 30
0.0
 10
17.5010047557
 20
13.8484179698
 30
0.0
 10
17.5053302764
 20
13.8614293688
 30
0.0
 10
17.5127219595
 20
13.8775830211
 30
0.0
 10
17.5243814743
 20
13.8962058241
 30
0.0
 10
17.5387082033
 20
13.9139513902
 30
0.0
 10
17.555430014
 20
13.9304895354
 30
0.0
 10
17.5742327177
 20
13.9455149127
 30
0.0
 10
17.594764106
 20
13.9587481219
 30
0.0
 10
17.6166372522
 20
13.9699419487
 30
0.0
 10
17.6394511059
 20
13.9788883163
 30
0.0
 10
17.6701343688
 20
13.9874826333
 30
0.0
 10
17.6938711866
 20
13.9903345239
 30
0.0
 10
17.7094483116
 20
13.9903345239
 30
0.0
  0
SPLINE
  5
416
100
AcDbEntity
  8
0
100
AcDbSpline
 62
7
  6
BYLAYER
 70
0
 71
3
 72
31
 73
27
 74
0
 42
0.0000001
 43
0.0000001
 44
0.0000000001
 40
0.0
 40
0.0
 40
0.0
 40
0.0
 40
0.0155006459
 40
0.0315033822
 40
0.0484546371
 40
0.0667109892
 40
0.0865313027
 40
0.10808554
 40
0.1314693035
 40
0.1567186535
 40
0.18382257
 40
0.2127323091
 40
0.2433682335
 40
0.2756256102
 40
0.3444718938
 40
0.4180908226
 40
0.4950894771
 40
0.5739485634
 40
0.6530827198
 40
0.7308969124
 40
0.8058425994
 40
0.8764763492
 40
0.909777144
 40
0.9415396081
 40
0.9716486497
 40
1.0
 40
1.0
 40
1.0
 40
1.0
 10
18.2792055715
 20
12.3653363896
 30
0.0
 10
18.2813616697
 20
12.365336462
 30
0.0
 10
18.2857553117
 20
12.3657792441
 30
0.0
 10
18.2922397851
 20
12.3677483062
 30
0.0
 10
18.2986170242
 20
12.3709945106
 30
0.0
 10
18.3048491332
 20
12.3754817137
 30
0.0
 10
18.3109087358
 20
12.381174425
 30
0.0
 10
18.3167677026
 20
12.3880363112
 30
0.0
 10
18.3223973153
 20
12.3960271627
 30
0.0
 10
18.327767901
 20
12.4051012198
 30
0.0
 10
18.3328497183
 20
12.4152065097
 30
0.0
 10
18.3376135705
 20
12.4262846718
 30
0.0
 10
18.3420320668
 20
12.4382712141
 30
0.0
 10
18.3475471398
 20
12.4557521683
 30
0.0
 10
18.353329196
 20
12.4793873831
 30
0.0
 10
18.3584055515
 20
12.5095121625
 30
0.0
 10
18.3616386921
 20
12.5412892634
 30
0.0
 10
18.3629505941
 20
12.5739693502
 30
0.0
 10
18.3623090287
 20
12.6067827496
 30
0.0
 10
18.3597299515
 20
12.6389562623
 30
0.0
 10
18.3552754323
 20
12.6697306237
 30
0.0
 10
18.3499926579
 20
12.6940722451
 30
0.0
 10
18.3448559668
 20
12.7122402008
 30
0.0
 10
18.3406903069
 20
12.7248112101
 30
0.0
 10
18.3361612015
 20
12.7365207327
 30
0.0
 10
18.3328135224
 20
12.7439375158
 30
0.0
 10
18.3310761997
 20
12.7474778073
 30
0.0
  0
SPLINE
  5
417
100
AcDbEntity
  8
0
100
AcDbSpline
 62
7
  6
BYLAYER
 70
0
 71
3
 72
18
 73
14
 74
0
 42
0.0000001
 43
0.0000001
 44
0.0000000001
 40
0.0
 40
0.0
 40
0.0
 40
0.0
 40
0.0487207037
 40
0.1005297124
 40
0.1552478533
 40
0.2126576156
 40
0.2725063412
 40
0.3345138938
 40
0.4637533671
 40
0.5977644579
 40
0.7337299276
 40
0.8687599863
 40
1.0
 40
1.0
 40
1.0
 40
1.0
 10
17.9763852244
 20
12.3448360078
 30
0.0
 10
17.9738882222
 20
12.3499243631
 30
0.0
 10
17.9690825291
 20
12.360596009
 30
0.0
 10
17.9626006079
 20
12.3774621562
 30
0.0
 10
17.956656446
 20
12.3955918386
 30
0.0
 10
17.9512875922
 20
12.4148715983
 30
0.0
 10
17.9465273827
 20
12.4351821394
 30
0.0
 10
17.9409563615
 20
12.4638636647
 30
0.0
 10
17.9357669693
 20
12.5013786245
 30
0.0
 10
17.9323963047
 20
12.5477290752
 30
0.0
 10
17.9318870754
 20
12.594873924
 30
0.0
 10
17.9342516465
 20
12.641637041
 30
0.0
 10
17.9377782691
 20
12.6724398462
 30
0.0
 10
17.9400473848
 20
12.6875383396
 30
0.0
  0
SPLINE
  5
418
100
AcDbEntity
  8
02___PRT_ALL_AXES
100
AcDbSpline
 62
7
  6
BYLAYER
 70
0
 71
3
 72
20
 73
16
 74
0
 42
0.0000001
 43
0.0000001
 44
0.0000000001
 40
0.0
 40
0.0
 40
0.0
 40
0.0
 40
0.0507340861
 40
0.1026058865
 40
0.1565727167
 40
0.2132905237
 40
0.3355486832
 40
0.4011150499
 40
0.4689001405
 40
0.6080360695
 40
0.6779865412
 40
0.7469988219
 40
0.8143002031
 40
0.879238256
 40
1.0
 40
1.0
 40
1.0
 40
1.0
 10
18.03742155
 20
14.0916587176
 30
0.0
 10
18.0365171485
 20
14.09350124
 30
0.0
 10
18.0342648521
 20
14.0970353613
 30
0.0
 10
18.0297565309
 20
14.1015482374
 30
0.0
 10
18.0242305251
 20
14.1051919519
 30
0.0
 10
18.0155044502
 20
14.1088640245
 30
0.0
 10
18.0055376874
 20
14.1103201954
 30
0.0
 10
17.9951951555
 20
14.1097702576
 30
0.0
 10
17.9843216838
 20
14.1078063828
 30
0.0
 10
17.9737175799
 20
14.1038433528
 30
0.0
 10
17.9639791769
 20
14.0981729416
 30
0.0
 10
17.9572854812
 20
14.0931571962
 30
0.0
 10
17.9513876059
 20
14.0875090604
 30
0.0
 10
17.944947768
 20
14.0795372899
 30
0.0
 10
17.9414294906
 20
14.0727244176
 30
0.0
 10
17.9399870345
 20
14.0680566281
 30
0.0
  0
SPLINE
  5
419
100
AcDbEntity
  8
02___PRT_ALL_AXES
100
AcDbSpline
 62
7
  6
BYLAYER
 70
0
 71
3
 72
15
 73
11
 74
0
 42
0.0000001
 43
0.0000001
 44
0.0000000001
 40
0.0
 40
0.0
 40
0.0
 40
0.0
 40
0.115599154
 40
0.2404684093
 40
0.3722419337
 40
0.5071731317
 40
0.6409464341
 40
0.7694523536
 40
0.8895718379
 40
1.0
 40
1.0
 40
1.0
 40
1.0
 10
17.9374884491
 20
12.7909694301
 30
0.0
 10
17.9382573832
 20
12.7934577017
 30
0.0
 10
17.9406166515
 20
12.7984138292
 30
0.0
 10
17.9459191437
 20
12.8049891047
 30
0.0
 10
17.9527756658
 20
12.8106308593
 30
0.0
 10
17.9607412752
 20
12.8149777733
 30
0.0
 10
17.969304105
 20
12.8177557936
 30
0.0
 10
17.977920536
 20
12.8187793493
 30
0.0
 10
17.9860382722
 20
12.8179726349
 30
0.0
 10
17.9909845641
 20
12.8161356161
 30
0.0
 10
17.9931506399
 20
12.8149118395
 30
0.0
  0
SPLINE
  5
41A
100
AcDbEntity
  8
02___PRT_ALL_AXES
100
AcDbSpline
 62
7
  6
BYLAYER
 70
0
 71
3
 72
14
 73
10
 74
0
 42
0.0000001
 43
0.0000001
 44
0.0000000001
 40
0.0
 40
0.0
 40
0.0
 40
0.0
 40
0.1128399572
 40
0.2271853011
 40
0.3443969944
 40
0.4655774191
 40
0.5915072796
 40
0.722607523
 40
1.0
 40
1.0
 40
1.0
 40
1.0
 10
17.5256948934
 20
14.0916587186
 30
0.0
 10
17.5250033521
 20
14.0930675897
 30
0.0
 10
17.5233670028
 20
14.0957913887
 30
0.0
 10
17.5202370949
 20
14.0994445701
 30
0.0
 10
17.516474854
 20
14.1026248866
 30
0.0
 10
17.5121412869
 20
14.105285094
 30
0.0
 10
17.5073018381
 20
14.1073890826
 30
0.0
 10
17.5001452031
 20
14.1094529321
 30
0.0
 10
17.4944288985
 20
14.1100205697
 30
0.0
 10
17.4905707678
 20
14.1100205697
 30
0.0
  0
SPLINE
  5
41B
100
AcDbEntity
  8
02___PRT_ALL_AXES
100
AcDbSpline
 62
7
  6
BYLAYER
 70
0
 71
3
 72
20
 73
16
 74
0
 42
0.0000001
 43
0.0000001
 44
0.0000000001
 40
0.0
 40
0.0
 40
0.0
 40
0.0
 40
0.0507340861
 40
0.1026058865
 40
0.1565727167
 40
0.2132905237
 40
0.3355486832
 40
0.4011150499
 40
0.4689001405
 40
0.6080360695
 40
0.6779865412
 40
0.7469988219
 40
0.8143002031
 40
0.879238256
 40
1.0
 40
1.0
 40
1.0
 40
1.0
 10
17.3912067394
 20
13.6564548986
 30
0.0
 10
17.3903023379
 20
13.658297421
 30
0.0
 10
17.3880500415
 20
13.6618315423
 30
0.0
 10
17.3835417202
 20
13.6663444183
 30
0.0
 10
17.3780157144
 20
13.6699881329
 30
0.0
 10
17.3692896396
 20
13.6736602054
 30
0.0
 10
17.3593228768
 20
13.6751163764
 30
0.0
 10
17.3489803449
 20
13.6745664385
 30
0.0
 10
17.3381068731
 20
13.6726025638
 30
0.0
 10
17.3275027693
 20
13.6686395338
 30
0.0
 10
17.3177643663
 20
13.6629691225
 30
0.0
 10
17.3110706705
 20
13.6579533772
 30
0.0
 10
17.3051727953
 20
13.6523052413
 30
0.0
 10
17.2987329574
 20
13.6443334709
 30
0.0
 10
17.29521468
 20
13.6375205986
 30
0.0
 10
17.2937722239
 20
13.632852809
 30
0.0
  0
SPLINE
  5
41C
100
AcDbEntity
  8
0
100
AcDbSpline
 62
7
  6
BYLAYER
 70
0
 71
3
 72
19
 73
15
 74
0
 42
0.0000001
 43
0.0000001
 44
0.0000000001
 40
0.0
 40
0.0
 40
0.0
 40
0.0
 40
0.1211574768
 40
0.186354988
 40
0.2539302414
 40
0.3931374858
 40
0.5324991818
 40
0.6002567473
 40
0.6656905259
 40
0.7874074382
 40
0.8438079157
 40
0.8975017821
 40
0.9492224124
 40
1.0
 40
1.0
 40
1.0
 40
1.0
 10
17.442518005
 20
13.1461751263
 30
0.0
 10
17.4434760929
 20
13.1492754998
 30
0.0
 10
17.4458248982
 20
13.1537983664
 30
0.0
 10
17.4501271888
 20
13.1590773184
 30
0.0
 10
17.4554311469
 20
13.1640996247
 30
0.0
 10
17.4632854338
 20
13.1691915956
 30
0.0
 10
17.4720907614
 20
13.1723808137
 30
0.0
 10
17.4793099418
 20
13.1735864885
 30
0.0
 10
17.4861431319
 20
13.1738414876
 30
0.0
 10
17.4927003064
 20
13.1727460836
 30
0.0
 10
17.4983806593
 20
13.1701654896
 30
0.0
 10
17.5019408624
 20
13.167642055
 30
0.0
 10
17.5047998339
 20
13.1645457352
 30
0.0
 10
17.5061857039
 20
13.1621445408
 30
0.0
 10
17.5067293047
 20
13.1608978984
 30
0.0
  0
SPLINE
  5
41D
100
AcDbEntity
  8
02___PRT_ALL_AXES
100
AcDbSpline
 62
7
  6
BYLAYER
 70
0
 71
3
 72
14
 73
10
 74
0
 42
0.0000001
 43
0.0000001
 44
0.0000000001
 40
0.0
 40
0.0
 40
0.0
 40
0.0
 40
0.1128399572
 40
0.2271853011
 40
0.3443969944
 40
0.4655774191
 40
0.5915072796
 40
0.722607523
 40
1.0
 40
1.0
 40
1.0
 40
1.0
 10
17.9029334002
 20
13.6564548996
 30
0.0
 10
17.9022418589
 20
13.6578637706
 30
0.0
 10
17.9006055096
 20
13.6605875696
 30
0.0
 10
17.8974756018
 20
13.6642407511
 30
0.0
 10
17.8937133608
 20
13.6674210675
 30
0.0
 10
17.8893797938
 20
13.670081275
 30
0.0
 10
17.884540345
 20
13.6721852636
 30
0.0
 10
17.87738371
 20
13.674249113
 30
0.0
 10
17.8716674053
 20
13.6748167506
 30
0.0
 10
17.8678092746
 20
13.6748167506
 30
0.0
  0
SPLINE
  5
41E
100
AcDbEntity
  8
0
100
AcDbSpline
 62
7
  6
BYLAYER
 70
0
 71
3
 72
21
 73
17
 74
0
 42
0.0000001
 43
0.0000001
 44
0.0000000001
 40
0.0
 40
0.0
 40
0.0
 40
0.0
 40
0.0563221315
 40
0.1128352314
 40
0.1697255507
 40
0.2271701227
 40
0.2853328965
 40
0.3443614925
 40
0.4043845705
 40
0.4655101482
 40
0.5278247835
 40
0.591393121
 40
0.6562577625
 40
0.7224408158
 40
0.8586904836
 40
1.0
 40
1.0
 40
1.0
 40
1.0
 10
17.2173561376
 20
13.630183961
 30
0.0
 10
17.2205802092
 20
13.6236139333
 30
0.0
 10
17.2275988707
 20
13.6107178757
 30
0.0
 10
17.2397463131
 20
13.5922813927
 30
0.0
 10
17.2534765037
 20
13.574804098
 30
0.0
 10
17.2687361198
 20
13.5583529615
 30
0.0
 10
17.2854674876
 20
13.5429884823
 30
0.0
 10
17.3036073998
 20
13.5287675711
 30
0.0
 10
17.3230875325
 20
13.5157422568
 30
0.0
 10
17.3438347708
 20
13.503959867
 30
0.0
 10
17.3657717905
 20
13.4934631706
 30
0.0
 10
17.388816884
 20
13.4842903287
 30
0.0
 10
17.4128852116
 20
13.4764739593
 30
0.0
 10
17.4465411496
 20
13.4678162969
 30
0.0
 10
17.4907305494
 20
13.4606239953
 30
0.0
 10
17.5268273491
 20
13.4587912637
 30
0.0
 10
17.5451890207
 20
13.4587912637
 30
0.0
  0
SPLINE
  5
41F
100
AcDbEntity
  8
02___PRT_ALL_AXES
100
AcDbSpline
 62
7
  6
BYLAYER
 70
0
 71
3
 72
18
 73
14
 74
0
 42
0.0000001
 43
0.0000001
 44
0.0000000001
 40
0.0
 40
0.0
 40
0.0
 40
0.0
 40
0.1325554487
 40
0.2707008724
 40
0.4098378702
 40
0.5451767032
 40
0.6726740656
 40
0.7327918435
 40
0.7902860523
 40
0.8452987116
 40
0.8981849504
 40
0.9495076359
 40
1.0
 40
1.0
 40
1.0
 40
1.0
 10
17.8678092746
 20
13.6748167506
 30
0.0
 10
17.8632198191
 20
13.6748167506
 30
0.0
 10
17.8538255697
 20
13.6737082183
 30
0.0
 10
17.8402772095
 20
13.6692133942
 30
0.0
 10
17.8277506246
 20
13.6621547752
 30
0.0
 10
17.8171263936
 20
13.6530230608
 30
0.0
 10
17.810331828
 20
13.644000027
 30
0.0
 10
17.8066008844
 20
13.6363529375
 30
0.0
 10
17.804735237
 20
13.6306526298
 30
0.0
 10
17.803787593
 20
13.62498136
 30
0.0
 10
17.803781547
 20
13.6194413802
 30
0.0
 10
17.8047228853
 20
13.6141399581
 30
0.0
 10
17.8059791674
 20
13.6108200524
 30
0.0
 10
17.8067494715
 20
13.6092507185
 30
0.0
  0
SPLINE
  5
420
100
AcDbEntity
  8
0
100
AcDbSpline
 62
7
  6
BYLAYER
 70
0
 71
3
 72
27
 73
23
 74
0
 42
0.0000001
 43
0.0000001
 44
0.0000000001
 40
0.0
 40
0.0
 40
0.0
 40
0.0
 40
0.0251966131
 40
0.0504990195
 40
0.0760097768
 40
0.1018251931
 40
0.1280327456
 40
0.1547090525
 40
0.1819184329
 40
0.2097120391
 40
0.2671515675
 40
0.3272120728
 40
0.3898384612
 40
0.4548054139
 40
0.5217486591
 40
0.5901965036
 40
0.6596008497
 40
0.729367195
 40
0.7988838542
 40
0.833370641
 40
0.8675728102
 40
1.0
 40
1.0
 40
1.0
 40
1.0
 10
18.1150882273
 20
14.0707254761
 30
0.0
 10
18.1186785741
 20
14.0634090512
 30
0.0
 10
18.1251884601
 20
14.0483974124
 30
0.0
 10
18.1328272777
 20
14.0249931339
 30
0.0
 10
18.1383165169
 20
14.0007869108
 30
0.0
 10
18.1416306582
 20
13.9758948214
 30
0.0
 10
18.1427563742
 20
13.9504322363
 30
0.0
 10
18.1416904007
 20
13.9245178041
 30
0.0
 10
18.1384391547
 20
13.8982697438
 30
0.0
 10
18.1311360503
 20
13.8626085397
 30
0.0
 10
18.1164626859
 20
13.8177719568
 30
0.0
 10
18.0908425953
 20
13.765265022
 30
0.0
 10
18.0575026189
 20
13.7143656425
 30
0.0
 10
18.0170616968
 20
13.6659871567
 30
0.0
 10
17.9702569893
 20
13.6209885835
 30
0.0
 10
17.9179380863
 20
13.5801762529
 30
0.0
 10
17.8610517718
 20
13.5442826537
 30
0.0
 10
17.8006299853
 20
13.5139564537
 30
0.0
 10
17.7480895439
 20
13.4937210956
 30
0.0
 10
17.7052710024
 20
13.4808044584
 30
0.0
 10
17.6421307296
 20
13.4651785928
 30
0.0
 10
17.5880228205
 20
13.4587912637
 30
0.0
 10
17.5451890207
 20
13.4587912637
 30
0.0
  0
SPLINE
  5
421
100
AcDbEntity
  8
02___PRT_ALL_AXES
100
AcDbSpline
 62
7
  6
BYLAYER
 70
0
 71
3
 72
11
 73
7
 74
0
 42
0.0000001
 43
0.0000001
 44
0.0000000001
 40
0.0
 40
0.0
 40
0.0
 40
0.0
 40
0.2644280716
 40
0.5170829352
 40
0.7609159252
 40
1.0
 40
1.0
 40
1.0
 40
1.0
 10
17.2937722239
 20
13.632852809
 30
0.0
 10
17.2931429415
 20
13.6308164505
 30
0.0
 10
17.2922212015
 20
13.626728328
 30
0.0
 10
17.2919441591
 20
13.6205671311
 30
0.0
 10
17.2928203534
 20
13.6146652473
 30
0.0
 10
17.2941736796
 20
13.610980649
 30
0.0
 10
17.2950228149
 20
13.6092507195
 30
0.0
  0
SPLINE
  5
422
100
AcDbEntity
  8
02___PRT_ALL_AXES
100
AcDbSpline
 62
7
  6
BYLAYER
 70
0
 71
3
 72
15
 73
11
 74
0
 42
0.0000001
 43
0.0000001
 44
0.0000000001
 40
0.0
 40
0.0
 40
0.0
 40
0.0
 40
0.0858514607
 40
0.1774209735
 40
0.2792207128
 40
0.3941366111
 40
0.523634043
 40
0.6680989617
 40
0.827213888
 40
1.0
 40
1.0
 40
1.0
 40
1.0
 10
18.4450028195
 20
12.5750582882
 30
0.0
 10
18.4457916287
 20
12.575058165
 30
0.0
 10
18.4474300217
 20
12.5753033072
 30
0.0
 10
18.4497913897
 20
12.5763701986
 30
0.0
 10
18.4520611886
 20
12.5780964786
 30
0.0
 10
18.4542226172
 20
12.580447631
 30
0.0
 10
18.4562604003
 20
12.5833934222
 30
0.0
 10
18.4581550619
 20
12.5868998635
 30
0.0
 10
18.4598848397
 20
12.5909255293
 30
0.0
 10
18.4608764662
 20
12.5938123425
 30
0.0
 10
18.4613451923
 20
12.5953291408
 30
0.0
  0
SPLINE
  5
423
100
AcDbEntity
  8
02___PRT_ALL_AXES
100
AcDbSpline
 62
7
  6
BYLAYER
 70
0
 71
3
 72
25
 73
21
 74
0
 42
0.0000001
 43
0.0000001
 44
0.0000000001
 40
0.0
 40
0.0
 40
0.0
 40
0.0
 40
0.0155034836
 40
0.0315088859
 40
0.0484627513
 40
0.0667217116
 40
0.1080391413
 40
0.1566409263
 40
0.2126384539
 40
0.2755247381
 40
0.344383399
 40
0.4180159583
 40
0.4950291248
 40
0.5739033578
 40
0.6530528788
 40
0.7308823758
 40
0.8058427414
 40
0.876490919
 40
0.9415505141
 40
1.0
 40
1.0
 40
1.0
 40
1.0
 10
18.298288472
 20
12.1002904875
 30
0.0
 10
18.2988275011
 20
12.1002904021
 30
0.0
 10
18.2999259311
 20
12.1004010061
 30
0.0
 10
18.3015470746
 20
12.1008930793
 30
0.0
 10
18.3031415162
 20
12.1017044001
 30
0.0
 10
18.3053075863
 20
12.1032645271
 30
0.0
 10
18.3078830191
 20
12.1060538046
 30
0.0
 10
18.3106019482
 20
12.110357387
 30
0.0
 10
18.3130325952
 20
12.115664472
 30
0.0
 10
18.3151209894
 20
12.1218585655
 30
0.0
 10
18.3168201975
 20
12.1288016495
 30
0.0
 10
18.3180892941
 20
12.1363332579
 30
0.0
 10
18.3188976936
 20
12.1442775389
 30
0.0
 10
18.319225718
 20
12.1524477215
 30
0.0
 10
18.3190654028
 20
12.1606512468
 30
0.0
 10
18.3184206191
 20
12.1686947311
 30
0.0
 10
18.3173071285
 20
12.1763887555
 30
0.0
 10
18.315751691
 20
12.1835535126
 30
0.0
 10
18.3137923203
 20
12.1900212958
 30
0.0
 10
18.3121524201
 20
12.1940014552
 30
0.0
 10
18.311257155
 20
12.1958258138
 30
0.0
  0
SPLINE
  5
424
100
AcDbEntity
  8
02___PRT_ALL_AXES
100
AcDbSpline
 62
7
  6
BYLAYER
 70
0
 71
3
 72
18
 73
14
 74
0
 42
0.0000001
 43
0.0000001
 44
0.0000000001
 40
0.0
 40
0.0
 40
0.0
 40
0.0
 40
0.1325554487
 40
0.2707008724
 40
0.4098378702
 40
0.5451767032
 40
0.6726740656
 40
0.7327918435
 40
0.7902860523
 40
0.8452987116
 40
0.8981849504
 40
0.9495076359
 40
1.0
 40
1.0
 40
1.0
 40
1.0
 10
17.4905707678
 20
14.1100205697
 30
0.0
 10
17.4859813123
 20
14.1100205697
 30
0.0
 10
17.4765870628
 20
14.1089120373
 30
0.0
 10
17.4630387027
 20
14.1044172133
 30
0.0
 10
17.4505121178
 20
14.0973585942
 30
0.0
 10
17.4398878868
 20
14.0882268799
 30
0.0
 10
17.4330933211
 20
14.0792038461
 30
0.0
 10
17.4293623776
 20
14.0715567565
 30
0.0
 10
17.4274967301
 20
14.0658564489
 30
0.0
 10
17.4265490862
 20
14.0601851791
 30
0.0
 10
17.4265430402
 20
14.0546451992
 30
0.0
 10
17.4274843784
 20
14.0493437771
 30
0.0
 10
17.4287406606
 20
14.0460238715
 30
0.0
 10
17.4295109647
 20
14.0444545375
 30
0.0
  0
SPLINE
  5
425
100
AcDbEntity
  8
02___PRT_ALL_AXES
100
AcDbSpline
 62
7
  6
BYLAYER
 70
0
 71
3
 72
14
 73
10
 74
0
 42
0.0000001
 43
0.0000001
 44
0.0000000001
 40
0.0
 40
0.0
 40
0.0
 40
0.0
 40
0.3152667198
 40
0.45425357
 40
0.5812298155
 40
0.6972333718
 40
0.8039363078
 40
0.9037966714
 40
1.0
 40
1.0
 40
1.0
 40
1.0
 10
18.2730882118
 20
13.0473461511
 30
0.0
 10
18.2722425855
 20
13.0490693564
 30
0.0
 10
18.2708680916
 20
13.0514880483
 30
0.0
 10
18.2686951961
 20
13.0542879352
 30
0.0
 10
18.2670703454
 20
13.0559598833
 30
0.0
 10
18.2653912597
 20
13.0572809748
 30
0.0
 10
18.2636654003
 20
13.0582390396
 30
0.0
 10
18.2619043659
 20
13.0588220537
 30
0.0
 10
18.260706954
 20
13.0589535016
 30
0.0
 10
18.2601212173
 20
13.0589535944
 30
0.0
  0
SPLINE
  5
426
100
AcDbEntity
  8
02___PRT_ALL_AXES
100
AcDbSpline
 62
7
  6
BYLAYER
 70
0
 71
3
 72
15
 73
11
 74
0
 42
0.0000001
 43
0.0000001
 44
0.0000000001
 40
0.0
 40
0.0
 40
0.0
 40
0.0
 40
0.0858514607
 40
0.1774209735
 40
0.2792207128
 40
0.3941366111
 40
0.523634043
 40
0.6680989617
 40
0.827213888
 40
1.0
 40
1.0
 40
1.0
 40
1.0
 10
18.1134051813
 20
12.4770430203
 30
0.0
 10
18.1141939906
 20
12.4770428971
 30
0.0
 10
18.1158323836
 20
12.4772880393
 30
0.0
 10
18.1181937515
 20
12.4783549307
 30
0.0
 10
18.1204635504
 20
12.4800812107
 30
0.0
 10
18.1226249791
 20
12.4824323631
 30
0.0
 10
18.1246627622
 20
12.4853781543
 30
0.0
 10
18.1265574237
 20
12.4888845957
 30
0.0
 10
18.1282872015
 20
12.4929102614
 30
0.0
 10
18.129278828
 20
12.4957970746
 30
0.0
 10
18.1297475541
 20
12.4973138729
 30
0.0
  0
SPLINE
  5
427
100
AcDbEntity
  8
02___PRT_ALL_AXES
100
AcDbSpline
 62
7
  6
BYLAYER
 70
0
 71
3
 72
25
 73
21
 74
0
 42
0.0000001
 43
0.0000001
 44
0.0000000001
 40
0.0
 40
0.0
 40
0.0
 40
0.0
 40
0.0155034836
 40
0.0315088859
 40
0.0484627513
 40
0.0667217116
 40
0.1080391413
 40
0.1566409263
 40
0.2126384539
 40
0.2755247381
 40
0.344383399
 40
0.4180159583
 40
0.4950291248
 40
0.5739033578
 40
0.6530528788
 40
0.7308823758
 40
0.8058427414
 40
0.876490919
 40
0.9415505141
 40
1.0
 40
1.0
 40
1.0
 40
1.0
 10
18.2601195288
 20
12.9518108247
 30
0.0
 10
18.260658558
 20
12.9518107394
 30
0.0
 10
18.2617569879
 20
12.9519213434
 30
0.0
 10
18.2633781315
 20
12.9524134166
 30
0.0
 10
18.264972573
 20
12.9532247374
 30
0.0
 10
18.2671386432
 20
12.9547848644
 30
0.0
 10
18.2697140759
 20
12.9575741419
 30
0.0
 10
18.2724330051
 20
12.9618777243
 30
0.0
 10
18.2748636521
 20
12.9671848093
 30
0.0
 10
18.2769520463
 20
12.9733789028
 30
0.0
 10
18.2786512543
 20
12.9803219868
 30
0.0
 10
18.279920351
 20
12.9878535952
 30
0.0
 10
18.2807287505
 20
12.9957978762
 30
0.0
 10
18.2810567748
 20
13.0039680588
 30
0.0
 10
18.2808964596
 20
13.0121715841
 30
0.0
 10
18.2802516759
 20
13.0202150684
 30
0.0
 10
18.2791381853
 20
13.0279090928
 30
0.0
 10
18.2775827479
 20
13.0350738499
 30
0.0
 10
18.2756233771
 20
13.0415416331
 30
0.0
 10
18.273983477
 20
13.0455217925
 30
0.0
 10
18.2730882118
 20
13.0473461511
 30
0.0
  0
SPLINE
  5
428
100
AcDbEntity
  8
02___PRT_ALL_AXES
100
AcDbSpline
 62
7
  6
BYLAYER
 70
0
 71
3
 72
11
 73
7
 74
0
 42
0.0000001
 43
0.0000001
 44
0.0000000001
 40
0.0
 40
0.0
 40
0.0
 40
0.0
 40
0.2644280716
 40
0.5170829352
 40
0.7609159252
 40
1.0
 40
1.0
 40
1.0
 40
1.0
 10
17.9399870345
 20
14.0680566281
 30
0.0
 10
17.9393577521
 20
14.0660202695
 30
0.0
 10
17.9384360121
 20
14.061932147
 30
0.0
 10
17.9381589697
 20
14.0557709502
 30
0.0
 10
17.939035164
 20
14.0498690663
 30
0.0
 10
17.9403884903
 20
14.046184468
 30
0.0
 10
17.9412376255
 20
14.0444545386
 30
0.0
  0
SPLINE
  5
429
100
AcDbEntity
  8
0
100
AcDbSpline
 62
7
  6
BYLAYER
 70
0
 71
3
 72
16
 73
12
 74
0
 42
0.0000001
 43
0.0000001
 44
0.0000000001
 40
0.0
 40
0.0
 40
0.0
 40
0.0
 40
0.2779658503
 40
0.4090298871
 40
0.4725636586
 40
0.5348044667
 40
0.6556519731
 40
0.772561506
 40
0.8299753446
 40
0.8869044178
 40
1.0
 40
1.0
 40
1.0
 40
1.0
 10
17.7094483116
 20
13.9903345239
 30
0.0
 10
17.7227984272
 20
13.9903345239
 30
0.0
 10
17.7425729541
 20
13.988297259
 30
0.0
 10
17.7643563094
 20
13.9817256935
 30
0.0
 10
17.7757470862
 20
13.9769642557
 30
0.0
 10
17.7863314499
 20
13.9716293933
 30
0.0
 10
17.7984602395
 20
13.96374264
 30
0.0
 10
17.8090168278
 20
13.9541778592
 30
0.0
 10
17.8162414274
 20
13.9457253579
 30
0.0
 10
17.822607103
 20
13.9368367719
 30
0.0
 10
17.8264799128
 20
13.929585244
 30
0.0
 10
17.8286079432
 20
13.9245877126
 30
0.0
  0
SPLINE
  5
42A
100
AcDbEntity
  8
0
100
AcDbSpline
 62
7
  6
BYLAYER
 70
0
 71
3
 72
13
 73
9
 74
0
 42
0.0000001
 43
0.0000001
 44
0.0000000001
 40
0.0
 40
0.0
 40
0.0
 40
0.0
 40
0.2427240343
 40
0.3704265749
 40
0.4999804713
 40
0.6295372861
 40
0.757248122
 40
1.0
 40
1.0
 40
1.0
 40
1.0
 10
17.5029064851
 20
13.1375643983
 30
0.0
 10
17.4993085413
 20
13.1378734414
 30
0.0
 10
17.4937149072
 20
13.1374572398
 30
0.0
 10
17.4865311661
 20
13.1354885286
 30
0.0
 10
17.4812008248
 20
13.1332752385
 30
0.0
 10
17.476187609
 20
13.1304151288
 30
0.0
 10
17.4702328003
 20
13.1259395305
 30
0.0
 10
17.4664790611
 20
13.1217709787
 30
0.0
 10
17.4645203553
 20
13.1187366467
 30
0.0
  0
SPLINE
  5
42B
100
AcDbEntity
  8
0
100
AcDbSpline
 62
7
  6
BYLAYER
 70
0
 71
3
 72
11
 73
7
 74
0
 42
0.0000001
 43
0.0000001
 44
0.0000000001
 40
0.0
 40
0.0
 40
0.0
 40
0.0
 40
0.2393009088
 40
0.482830382
 40
0.7352667238
 40
1.0
 40
1.0
 40
1.0
 40
1.0
 10
17.4437158741
 20
13.1299760794
 30
0.0
 10
17.4430771425
 20
13.1311420269
 30
0.0
 10
17.4420439462
 20
13.133644812
 30
0.0
 10
17.4413308306
 20
13.1376966839
 30
0.0
 10
17.4414595194
 20
13.1419473953
 30
0.0
 10
17.4420837757
 20
13.1447699599
 30
0.0
 10
17.442518005
 20
13.1461751263
 30
0.0
  0
SPLINE
  5
42C
100
AcDbEntity
  8
0
100
AcDbSpline
 62
7
  6
BYLAYER
 70
0
 71
3
 72
34
 73
30
 74
0
 42
0.0000001
 43
0.0000001
 44
0.0000000001
 40
0.0
 40
0.0
 40
0.0
 40
0.0
 40
0.0330539335
 40
0.0673902152
 40
0.1028825463
 40
0.1393991652
 40
0.2149202482
 40
0.292752162
 40
0.3716152489
 40
0.4110281132
 40
0.4502075599
 40
0.527212806
 40
0.6013830851
 40
0.6370401924
 40
0.6715596943
 40
0.7048163077
 40
0.7366961581
 40
0.767098813
 40
0.7959396934
 40
0.8231529739
 40
0.8486952432
 40
0.8725501799
 40
0.8947345655
 40
0.9153059419
 40
0.9343719936
 40
0.9521009166
 40
0.9687305985
 40
0.9845719673
 40
1.0
 40
1.0
 40
1.0
 40
1.0
 10
18.1157895589
 20
12.912627381
 30
0.0
 10
18.112698336
 20
12.90262418
 30
0.0
 10
18.1068167803
 20
12.8820976801
 30
0.0
 10
18.0990131513
 20
12.8504507116
 30
0.0
 10
18.0920883235
 20
12.8174781405
 30
0.0
 10
18.0839829905
 20
12.7714489227
 30
0.0
 10
18.0763362123
 20
12.7117553565
 30
0.0
 10
18.0711650532
 20
12.6383463946
 30
0.0
 10
18.0701957643
 20
12.5762024367
 30
0.0
 10
18.071451151
 20
12.5263384067
 30
0.0
 10
18.0740455768
 20
12.4771152964
 30
0.0
 10
18.0797171152
 20
12.4170531997
 30
0.0
 10
18.0887331566
 20
12.3585227409
 30
0.0
 10
18.0979033716
 20
12.3137217399
 30
0.0
 10
18.1055760998
 20
12.2818627404
 30
0.0
 10
18.1140953824
 20
12.2514597677
 30
0.0
 10
18.1234198011
 20
12.2226605624
 30
0.0
 10
18.1335037331
 20
12.1956049705
 30
0.0
 10
18.1442981937
 20
12.1704238307
 30
0.0
 10
18.1557511855
 20
12.1472383663
 30
0.0
 10
18.1678083005
 20
12.1261595492
 30
0.0
 10
18.1804134641
 20
12.107287656
 30
0.0
 10
18.1935099284
 20
12.0907121515
 30
0.0
 10
18.2070413095
 20
12.0765122361
 30
0.0
 10
18.2209526413
 20
12.0647584433
 30
0.0
 10
18.2351889252
 20
12.0555157058
 30
0.0
 10
18.2496942901
 20
12.0488468196
 30
0.0
 10
18.2643928883
 20
12.0448124461
 30
0.0
 10
18.2743194957
 20
12.0439076276
 30
0.0
 10
18.2792063759
 20
12.0439077658
 30
0.0
  0
SPLINE
  5
42D
100
AcDbEntity
  8
02___PRT_ALL_AXES
100
AcDbSpline
 62
7
  6
BYLAYER
 70
0
 71
3
 72
17
 73
13
 74
0
 42
0.0000001
 43
0.0000001
 44
0.0000000001
 40
0.0
 40
0.0
 40
0.0
 40
0.0
 40
0.0358349259
 40
0.0725679528
 40
0.1523672478
 40
0.1971301829
 40
0.2458771573
 40
0.3569283938
 40
0.4879582464
 40
0.6397406671
 40
0.8113026453
 40
1.0
 40
1.0
 40
1.0
 40
1.0
 10
17.4065490562
 20
13.082706676
 30
0.0
 10
17.4068334596
 20
13.0821270877
 30
0.0
 10
17.4075017938
 20
13.0809962785
 30
0.0
 10
17.4092439587
 20
13.0788636053
 30
0.0
 10
17.4115482261
 20
13.0770356801
 30
0.0
 10
17.4142617882
 20
13.0754879899
 30
0.0
 10
17.4176172767
 20
13.0739519218
 30
0.0
 10
17.4226169958
 20
13.0723327247
 30
0.0
 10
17.4295673034
 20
13.0708626924
 30
0.0
 10
17.4376901946
 20
13.0697951751
 30
0.0
 10
17.4468969822
 20
13.0691508017
 30
0.0
 10
17.4533887702
 20
13.0690193703
 30
0.0
 10
17.4567883658
 20
13.0690193703
 30
0.0
  0
SPLINE
  5
42E
100
AcDbEntity
  8
0
100
AcDbSpline
 62
7
  6
BYLAYER
 70
0
 71
3
 72
9
 73
5
 74
0
 42
0.0000001
 43
0.0000001
 44
0.0000000001
 40
0.0
 40
0.0
 40
0.0
 40
0.0
 40
0.4975069097
 40
1.0
 40
1.0
 40
1.0
 40
1.0
 10
18.0170321048
 20
13.118231723
 30
0.0
 10
18.0086745161
 20
13.1350476882
 30
0.0
 10
17.9903401306
 20
13.1681065723
 30
0.0
 10
17.9691654933
 20
13.1994130108
 30
0.0
 10
17.9579207363
 20
13.2146866844
 30
0.0
  0
SPLINE
  5
42F
100
AcDbEntity
  8
0
100
AcDbSpline
 62
7
  6
BYLAYER
 70
0
 71
3
 72
11
 73
7
 74
0
 42
0.0000001
 43
0.0000001
 44
0.0000000001
 40
0.0
 40
0.0
 40
0.0
 40
0.0
 40
0.2270911403
 40
0.4693727284
 40
0.7270582478
 40
1.0
 40
1.0
 40
1.0
 40
1.0
 10
18.0011332092
 20
12.3061870135
 30
0.0
 10
17.9988511438
 20
12.3088180901
 30
0.0
 10
17.9943635932
 20
12.314457807
 30
0.0
 10
17.9880609028
 20
12.3236660288
 30
0.0
 10
17.9819944484
 20
12.333858199
 30
0.0
 10
17.9782293696
 20
12.3410780349
 30
0.0
 10
17.9763852244
 20
12.3448360078
 30
0.0
  0
SPLINE
  5
430
100
AcDbEntity
  8
02___PRT_ALL_AXES
100
AcDbSpline
 62
7
  6
BYLAYER
 70
0
 71
3
 72
11
 73
7
 74
0
 42
0.0000001
 43
0.0000001
 44
0.0000000001
 40
0.0
 40
0.0
 40
0.0
 40
0.0
 40
0.2536230798
 40
0.5102410106
 40
0.7614943382
 40
1.0
 40
1.0
 40
1.0
 40
1.0
 10
17.9873398815
 20
12.7817296382
 30
0.0
 10
17.9845130208
 20
12.7811750102
 30
0.0
 10
17.9789269554
 20
12.779476999
 30
0.0
 10
17.9712243992
 20
12.7754359706
 30
0.0
 10
17.9645521184
 20
12.7701241998
 30
0.0
 10
17.9609600139
 20
12.7658069863
 30
0.0
 10
17.9594907995
 20
12.7635309505
 30
0.0
  0
SPLINE
  5
431
100
AcDbEntity
  8
0
100
AcDbSpline
 62
7
  6
BYLAYER
 70
0
 71
3
 72
17
 73
13
 74
0
 42
0.0000001
 43
0.0000001
 44
0.0000000001
 40
0.0
 40
0.0
 40
0.0
 40
0.0
 40
0.1126226063
 40
0.2259143994
 40
0.34046382
 40
0.4572609181
 40
0.5779048084
 40
0.705041979
 40
0.7723941922
 40
0.8433285857
 40
0.9189329207
 40
1.0
 40
1.0
 40
1.0
 40
1.0
 10
17.9579207363
 20
13.2146866844
 30
0.0
 10
17.9535234725
 20
13.2229564599
 30
0.0
 10
17.9444241847
 20
13.2394005476
 30
0.0
 10
17.9295393319
 20
13.2635028642
 30
0.0
 10
17.9129954086
 20
13.2869349549
 30
0.0
 10
17.8943289345
 20
13.3095276605
 30
0.0
 10
17.8729763695
 20
13.3311166672
 30
0.0
 10
17.8526284928
 20
13.347737202
 30
0.0
 10
17.8342869427
 20
13.3600447365
 30
0.0
 10
17.8188194164
 20
13.3688687226
 30
0.0
 10
17.8016159049
 20
13.3768195462
 30
0.0
 10
17.7892333343
 20
13.3810105601
 30
0.0
 10
17.7827067754
 20
13.3827008133
 30
0.0
  0
SPLINE
  5
432
100
AcDbEntity
  8
0
100
AcDbSpline
 62
7
  6
BYLAYER
 70
0
 71
3
 72
10
 73
6
 74
0
 42
0.0000001
 43
0.0000001
 44
0.0000000001
 40
0.0
 40
0.0
 40
0.0
 40
0.0
 40
0.4650523703
 40
0.7234904516
 40
1.0
 40
1.0
 40
1.0
 40
1.0
 10
17.7772703884
 20
13.3839869189
 30
0.0
 10
17.7735547927
 20
13.3878803548
 30
0.0
 10
17.7671177084
 20
13.3933571641
 30
0.0
 10
17.7571989204
 20
13.3993514366
 30
0.0
 10
17.7514966239
 20
13.4018398202
 30
0.0
 10
17.748464863
 20
13.4028635459
 30
0.0
  0
SPLINE
  5
433
100
AcDbEntity
  8
0
100
AcDbSpline
 62
7
  6
BYLAYER
 70
0
 71
3
 72
14
 73
10
 74
0
 42
0.0000001
 43
0.0000001
 44
0.0000000001
 40
0.0
 40
0.0
 40
0.0
 40
0.0
 40
0.1123940456
 40
0.2266602637
 40
0.3440261659
 40
0.4654634314
 40
0.5916316155
 40
0.7228688763
 40
1.0
 40
1.0
 40
1.0
 40
1.0
 10
18.1422409936
 20
13.3340759185
 30
0.0
 10
18.1444897247
 20
13.3287955655
 30
0.0
 10
18.1481472935
 20
13.31775
 30
0.0
 10
18.1509192238
 20
13.3003319819
 30
0.0
 10
18.150977542
 20
13.2822342389
 30
0.0
 10
18.1483325306
 20
13.2637255418
 30
0.0
 10
18.1430327433
 20
13.2450617805
 30
0.0
 10
18.1323575914
 20
13.2198845842
 30
0.0
 10
18.1208829395
 20
13.2022158291
 30
0.0
 10
18.1120723939
 20
13.1911418105
 30
0.0
  0
SPLINE
  5
434
100
AcDbEntity
  8
02___PRT_ALL_AXES
100
AcDbSpline
 62
7
  6
BYLAYER
 70
0
 71
3
 72
23
 73
19
 74
0
 42
0.0000001
 43
0.0000001
 44
0.0000000001
 40
0.0
 40
0.0
 40
0.0
 40
0.0
 40
0.0673998386
 40
0.1394233254
 40
0.2149688537
 40
0.2928262555
 40
0.4502670537
 40
0.5272978382
 40
0.6014929883
 40
0.6716829418
 40
0.7368287424
 40
0.7960756988
 40
0.8488254936
 40
0.8948444818
 40
0.9344383256
 40
0.9687198115
 40
0.9845667702
 40
1.0
 40
1.0
 40
1.0
 40
1.0
 10
18.1297475541
 20
12.4973138729
 30
0.0
 10
18.1303776612
 20
12.4993529002
 30
0.0
 10
18.1315051163
 20
12.5036263705
 30
0.0
 10
18.1327851345
 20
12.5103161341
 30
0.0
 10
18.1336930069
 20
12.5174007011
 30
0.0
 10
18.1343840266
 20
12.527222748
 30
0.0
 10
18.134273215
 20
12.5371356167
 30
0.0
 10
18.1333551137
 20
12.5468701182
 30
0.0
 10
18.1322867511
 20
12.5538038899
 30
0.0
 10
18.1308560469
 20
12.5602876304
 30
0.0
 10
18.1290910043
 20
12.5661973791
 30
0.0
 10
18.1270257321
 20
12.5714214424
 30
0.0
 10
18.12469892
 20
12.5758640746
 30
0.0
 10
18.1221469481
 20
12.5794473938
 30
0.0
 10
18.1194047139
 20
12.5821104819
 30
0.0
 10
18.116899163
 20
12.5835433073
 30
0.0
 10
18.1148882241
 20
12.5840951152
 30
0.0
 10
18.1138955517
 20
12.5841857173
 30
0.0
 10
18.1134068698
 20
12.5841857936
 30
0.0
  0
SPLINE
  5
435
100
AcDbEntity
  8
02___PRT_ALL_AXES
100
AcDbSpline
 62
7
  6
BYLAYER
 70
0
 71
3
 72
11
 73
7
 74
0
 42
0.0000001
 43
0.0000001
 44
0.0000000001
 40
0.0
 40
0.0
 40
0.0
 40
0.0
 40
0.2393009088
 40
0.482830382
 40
0.7352667238
 40
1.0
 40
1.0
 40
1.0
 40
1.0
 10
17.9386863182
 20
12.7747703832
 30
0.0
 10
17.9380475866
 20
12.7759363307
 30
0.0
 10
17.9370143903
 20
12.7784391158
 30
0.0
 10
17.9363012747
 20
12.7824909878
 30
0.0
 10
17.9364299635
 20
12.7867416992
 30
0.0
 10
17.9370542199
 20
12.7895642637
 30
0.0
 10
17.9374884491
 20
12.7909694301
 30
0.0
  0
SPLINE
  5
436
100
AcDbEntity
  8
0
100
AcDbSpline
 62
7
  6
BYLAYER
 70
0
 71
3
 72
9
 73
5
 74
0
 42
0.0000001
 43
0.0000001
 44
0.0000000001
 40
0.0
 40
0.0
 40
0.0
 40
0.0
 40
0.5150557246
 40
1.0
 40
1.0
 40
1.0
 40
1.0
 10
17.748464863
 20
13.4028635459
 30
0.0
 10
17.7463342147
 20
13.4035829956
 30
0.0
 10
17.7421077478
 20
13.4047309533
 30
0.0
 10
17.7377393851
 20
13.4052151016
 30
0.0
 10
17.7356220239
 20
13.4052190144
 30
0.0
  0
LINE
  5
437
100
AcDbEntity
  8
0
100
AcDbLine
 62
7
  6
BYLAYER
 10
17.7356220239
 20
13.4052190144
 11
17.6965285632
 21
13.4053363278
  0
SPLINE
  5
438
100
AcDbEntity
  8
0
100
AcDbSpline
 62
7
  6
BYLAYER
 70
0
 71
3
 72
23
 73
19
 74
0
 42
0.0000001
 43
0.0000001
 44
0.0000000001
 40
0.0
 40
0.0
 40
0.0
 40
0.0
 40
0.0925039613
 40
0.1803824038
 40
0.2634101197
 40
0.3414324743
 40
0.414378412
 40
0.4822768384
 40
0.545277709
 40
0.603678161
 40
0.657951657
 40
0.7087744721
 40
0.7570372131
 40
0.8038238685
 40
0.8503437502
 40
0.8978235503
 40
0.9473925159
 40
1.0
 40
1.0
 40
1.0
 40
1.0
 10
18.0468925206
 20
12.1110310205
 30
0.0
 10
18.0425111184
 20
12.097813102
 30
0.0
 10
18.0334215325
 20
12.072214066
 30
0.0
 10
18.018384009
 20
12.0355061175
 30
0.0
 10
18.0023534461
 20
12.0016135839
 30
0.0
 10
17.9854097419
 20
11.9707047382
 30
0.0
 10
17.967634904
 20
11.9429292347
 30
0.0
 10
17.9491121349
 20
11.9184194726
 30
0.0
 10
17.9299241314
 20
11.897291047
 30
0.0
 10
17.9101518121
 20
11.8796449956
 30
0.0
 10
17.8898745956
 20
11.8655718716
 30
0.0
 10
17.8691749125
 20
11.8551567781
 30
0.0
 10
17.8481488984
 20
11.8484806892
 30
0.0
 10
17.8269189034
 20
11.845610064
 30
0.0
 10
17.8056339979
 20
11.8465738841
 30
0.0
 10
17.7844467944
 20
11.8513483081
 30
0.0
 10
17.7634932962
 20
11.8598614077
 30
0.0
 10
17.7501967357
 20
11.8677048831
 30
0.0
 10
17.7436375234
 20
11.8721424738
 30
0.0
  0
SPLINE
  5
439
100
AcDbEntity
  8
0
100
AcDbSpline
 62
7
  6
BYLAYER
 70
0
 71
3
 72
11
 73
7
 74
0
 42
0.0000001
 43
0.0000001
 44
0.0000000001
 40
0.0
 40
0.0
 40
0.0
 40
0.0
 40
0.2790028259
 40
0.5393799617
 40
0.7799429693
 40
1.0
 40
1.0
 40
1.0
 40
1.0
 10
18.1157895589
 20
12.912627381
 30
0.0
 10
18.1198258512
 20
12.9256888276
 30
0.0
 10
18.1283102582
 20
12.950737678
 30
0.0
 10
18.1428344109
 20
12.9861180064
 30
0.0
 10
18.1586090565
 20
13.0177659931
 30
0.0
 10
18.1704000789
 20
13.0370594178
 30
0.0
 10
18.1765155433
 20
13.0459400375
 30
0.0
  0
SPLINE
  5
43A
100
AcDbEntity
  8
0
100
AcDbSpline
 62
7
  6
BYLAYER
 70
0
 71
3
 72
15
 73
11
 74
0
 42
0.0000001
 43
0.0000001
 44
0.0000000001
 40
0.0
 40
0.0
 40
0.0
 40
0.0
 40
0.1546652996
 40
0.2991045005
 40
0.4337903421
 40
0.5594848214
 40
0.6772897547
 40
0.7886840775
 40
0.8955270476
 40
1.0
 40
1.0
 40
1.0
 40
1.0
 10
18.1765155433
 20
13.0459400375
 30
0.0
 10
18.1802819392
 20
13.0514094391
 30
0.0
 10
18.1879266264
 20
13.0617460273
 30
0.0
 10
18.2001747447
 20
13.0758068061
 30
0.0
 10
18.2127643443
 20
13.0878317008
 30
0.0
 10
18.2256511281
 20
13.0977677895
 30
0.0
 10
18.2387905872
 20
13.1055672943
 30
0.0
 10
18.2521364119
 20
13.1111843655
 30
0.0
 10
18.2656273611
 20
13.1145767071
 30
0.0
 10
18.2747176082
 20
13.1153361891
 30
0.0
 10
18.2792033134
 20
13.115336316
 30
0.0
  0
SPLINE
  5
43B
100
AcDbEntity
  8
0
100
AcDbSpline
 62
7
  6
BYLAYER
 70
0
 71
3
 72
28
 73
24
 74
0
 42
0.0000001
 43
0.0000001
 44
0.0000000001
 40
0.0
 40
0.0
 40
0.0
 40
0.0
 40
0.0928708512
 40
0.1804407544
 40
0.2625318793
 40
0.3390509267
 40
0.4100064105
 40
0.4755325454
 40
0.5359223649
 40
0.564350562
 40
0.591698471
 40
0.6435265735
 40
0.6682949711
 40
0.6924799766
 40
0.7162451386
 40
0.7397662743
 40
0.7632269566
 40
0.7868140421
 40
0.8107124175
 40
0.8351004779
 40
0.8859599146
 40
0.9406161456
 40
1.0
 40
1.0
 40
1.0
 40
1.0
 10
17.6450129458
 20
13.0475397036
 30
0.0
 10
17.650340236
 20
13.0599688809
 30
0.0
 10
17.6612523546
 20
13.0838833632
 30
0.0
 10
17.6789401327
 20
13.1177932287
 30
0.0
 10
17.6973788316
 20
13.148560748
 30
0.0
 10
17.7164628519
 20
13.1760387106
 30
0.0
 10
17.7360903581
 20
13.2000994189
 30
0.0
 10
17.7561612752
 20
13.2206263456
 30
0.0
 10
17.7735205856
 20
13.2349860506
 30
0.0
 10
17.7875293897
 20
13.2444873133
 30
0.0
 10
17.801065544
 20
13.2523931485
 30
0.0
 10
17.8149444565
 20
13.2586129501
 30
0.0
 10
17.8290019578
 20
13.2628770537
 30
0.0
 10
17.8393792678
 20
13.2650536611
 30
0.0
 10
17.8497321441
 20
13.2662498075
 30
0.0
 10
17.8600469125
 20
13.2664623421
 30
0.0
 10
17.8703089572
 20
13.2656882319
 30
0.0
 10
17.880503826
 20
13.2639273471
 30
0.0
 10
17.8906180255
 20
13.261179682
 30
0.0
 10
17.9041632929
 20
13.2561367123
 30
0.0
 10
17.9209435605
 20
13.2472006478
 30
0.0
 10
17.9402048257
 20
13.2327378056
 30
0.0
 10
17.9520856431
 20
13.2210677674
 30
0.0
 10
17.9579207363
 20
13.2146866844
 30
0.0
  0
SPLINE
  5
43C
100
AcDbEntity
  8
0
100
AcDbSpline
 62
7
  6
BYLAYER
 70
0
 71
3
 72
19
 73
15
 74
0
 42
0.0000001
 43
0.0000001
 44
0.0000000001
 40
0.0
 40
0.0
 40
0.0
 40
0.0
 40
0.1321009841
 40
0.2599433084
 40
0.3838855287
 40
0.5045350784
 40
0.622914387
 40
0.6817820985
 40
0.7408558131
 40
0.8006647715
 40
0.8621039805
 40
0.9269702795
 40
0.9619060304
 40
1.0
 40
1.0
 40
1.0
 40
1.0
 10
17.4605808333
 20
13.2100838955
 30
0.0
 10
17.4668169619
 20
13.2201128648
 30
0.0
 10
17.4796508627
 20
13.2395060525
 30
0.0
 10
17.5003756383
 20
13.2668909382
 30
0.0
 10
17.522285897
 20
13.2920013365
 30
0.0
 10
17.5454631861
 20
13.3147606443
 30
0.0
 10
17.5660296178
 20
13.3317446337
 30
0.0
 10
17.5832602223
 20
13.34398295
 30
0.0
 10
17.5966792377
 20
13.3525087994
 30
0.0
 10
17.6107535857
 20
13.3603881832
 30
0.0
 10
17.6257525307
 20
13.3676150905
 30
0.0
 10
17.6391649763
 20
13.3729439658
 30
0.0
 10
17.6509057023
 20
13.3767154056
 30
0.0
 10
17.6572346878
 20
13.3783468032
 30
0.0
 10
17.6605653808
 20
13.3790570095
 30
0.0
  0
SPLINE
  5
43D
100
AcDbEntity
  8
03___PRT_ALL_CURVES
100
AcDbSpline
 62
7
  6
BYLAYER
 70
0
 71
3
 72
92
 73
88
 74
0
 42
0.0000001
 43
0.0000001
 44
0.0000000001
 40
0.0
 40
0.0
 40
0.0
 40
0.0
 40
0.0625
 40
0.09375
 40
0.109375
 40
0.125
 40
0.140625
 40
0.1484375
 40
0.15625
 40
0.16015625
 40
0.1640625
 40
0.166015625
 40
0.16796875
 40
0.169921875
 40
0.171875
 40
0.1796875
 40
0.1875
 40
0.203125
 40
0.21875
 40
0.25
 40
0.28125
 40
0.296875
 40
0.3125
 40
0.3203125
 40
0.328125
 40
0.33203125
 40
0.333984375
 40
0.3359375
 40
0.33984375
 40
0.34375
 40
0.3515625
 40
0.359375
 40
0.375
 40
0.390625
 40
0.40625
 40
0.421875
 40
0.4375
 40
0.453125
 40
0.46875
 40
0.4765625
 40
0.484375
 40
0.4921875
 40
0.49609375
 40
0.498046875
 40
0.5
 40
0.501953125
 40
0.50390625
 40
0.5078125
 40
0.515625
 40
0.5234375
 40
0.53125
 40
0.546875
 40
0.5625
 40
0.578125
 40
0.59375
 40
0.609375
 40
0.625
 40
0.640625
 40
0.6484375
 40
0.65625
 40
0.66015625
 40
0.6640625
 40
0.666015625
 40
0.66796875
 40
0.671875
 40
0.6796875
 40
0.6875
 40
0.703125
 40
0.71875
 40
0.75
 40
0.78125
 40
0.796875
 40
0.8125
 40
0.8203125
 40
0.828125
 40
0.83203125
 40
0.833984375
 40
0.8359375
 40
0.83984375
 40
0.84375
 40
0.8515625
 40
0.859375
 40
0.875
 40
0.890625
 40
0.90625
 40
0.9375
 40
1.0
 40
1.0
 40
1.0
 40
1.0
 10
17.7613196666
 20
14.1581902902
 30
0.0
 10
17.7542600828
 20
14.157737472
 30
0.0
 10
17.7436707056
 20
14.1570582337
 30
0.0
 10
17.731316437
 20
14.1562658274
 30
0.0
 10
17.7242568481
 20
14.1558129689
 30
0.0
 10
17.7189621758
 20
14.1554734787
 30
0.0
 10
17.7145498868
 20
14.1551900809
 30
0.0
 10
17.711020195
 20
14.1549644602
 30
0.0
 10
17.7088138203
 20
14.154820948
 30
0.0
 10
17.7070494473
 20
14.1547118622
 30
0.0
 10
17.7059450557
 20
14.1546306232
 30
0.0
 10
17.7050653413
 20
14.1545955459
 30
0.0
 10
17.7043951539
 20
14.1544873325
 30
0.0
 10
17.7037220518
 20
14.1543561679
 30
0.0
 10
17.7023773468
 20
14.1541056439
 30
0.0
 10
17.7003596614
 20
14.1537249127
 30
0.0
 10
17.696773133
 20
14.1530517418
 30
0.0
 10
17.6922898122
 20
14.1522090187
 30
0.0
 10
17.6851165893
 20
14.1508613535
 30
0.0
 10
17.6761500239
 20
14.1491766217
 30
0.0
 10
17.6671834924
 20
14.1474916265
 30
0.0
 10
17.6600102154
 20
14.1461443826
 30
0.0
 10
17.6555270296
 20
14.1453006064
 30
0.0
 10
17.6519402245
 20
14.1446295943
 30
0.0
 10
17.6496990564
 20
14.144201064
 30
0.0
 10
17.648129066
 20
14.1439194261
 30
0.0
 10
17.6472337636
 20
14.1437298059
 30
0.0
 10
17.6463453739
 20
14.1434321277
 30
0.0
 10
17.64523252
 20
14.1430970288
 30
0.0
 10
17.6434532764
 20
14.1425401938
 30
0.0
 10
17.6412287689
 20
14.1418512299
 30
0.0
 10
17.6376698102
 20
14.1407449307
 30
0.0
 10
17.6332210249
 20
14.1393634146
 30
0.0
 10
17.6278825199
 20
14.1377050127
 30
0.0
 10
17.6225440045
 20
14.1360467681
 30
0.0
 10
17.6172054931
 20
14.134388477
 30
0.0
 10
17.6118669762
 20
14.1327302148
 30
0.0
 10
17.6065284775
 20
14.1310718837
 30
0.0
 10
17.6020796724
 20
14.1296901463
 30
0.0
 10
17.5985207541
 20
14.1285842985
 30
0.0
 10
17.5958512218
 20
14.1277561632
 30
0.0
 10
17.5936277041
 20
14.1270620729
 30
0.0
 10
17.5920690978
 20
14.1265840153
 30
0.0
 10
17.5911818132
 20
14.1262986517
 30
0.0
 10
17.5905069195
 20
14.1261189625
 30
0.0
 10
17.5898680729
 20
14.1258080331
 30
0.0
 10
17.5890037039
 20
14.1254392385
 30
0.0
 10
17.5874969162
 20
14.1247725193
 30
0.0
 10
17.5853412997
 20
14.1238312142
 30
0.0
 10
17.5827558709
 20
14.122696875
 30
0.0
 10
17.5793081745
 20
14.1211860901
 30
0.0
 10
17.5749987113
 20
14.1192970368
 30
0.0
 10
17.5698272876
 20
14.1170304187
 30
0.0
 10
17.5646558834
 20
14.1147637323
 30
0.0
 10
17.5594844693
 20
14.1124970732
 30
0.0
 10
17.5543130751
 20
14.1102303735
 30
0.0
 10
17.549141611
 20
14.1079638087
 30
0.0
 10
17.5448322741
 20
14.1060745886
 30
0.0
 10
17.5413843199
 20
14.1045641438
 30
0.0
 10
17.539230452
 20
14.1036179957
 30
0.0
 10
17.5375048306
 20
14.1028659327
 30
0.0
 10
17.536432083
 20
14.1023848148
 30
0.0
 10
17.535560679
 20
14.102025295
 30
0.0
 10
17.5347374857
 20
14.1015731399
 30
0.0
 10
17.5333192933
 20
14.1007388356
 30
0.0
 10
17.531281619
 20
14.0995694248
 30
0.0
 10
17.5280278706
 20
14.0976858197
 30
0.0
 10
17.5239584477
 20
14.0953356114
 30
0.0
 10
17.5174486291
 20
14.0915728662
 30
0.0
 10
17.5093108699
 20
14.0868703313
 30
0.0
 10
17.5011734822
 20
14.0821672252
 30
0.0
 10
17.4946630691
 20
14.078405394
 30
0.0
 10
17.4905951327
 20
14.076052901
 30
0.0
 10
17.4873383369
 20
14.0741739794
 30
0.0
 10
17.4853084204
 20
14.0729926458
 30
0.0
 10
17.4838762942
 20
14.072179756
 30
0.0
 10
17.4830754358
 20
14.0716932749
 30
0.0
 10
17.4823405002
 20
14.0711240197
 30
0.0
 10
17.4813992589
 20
14.0704407923
 30
0.0
 10
17.4799058869
 20
14.0693317899
 30
0.0
 10
17.4780348529
 20
14.06795096
 30
0.0
 10
17.4750436124
 20
14.0657386012
 30
0.0
 10
17.4713037335
 20
14.0629741927
 30
0.0
 10
17.4668162334
 20
14.0596564573
 30
0.0
 10
17.4608327762
 20
14.0552329654
 30
0.0
 10
17.4503617841
 20
14.0474917819
 30
0.0
 10
17.4413866281
 20
14.0408565066
 30
0.0
 10
17.4354031952
 20
14.0364329843
 30
0.0
  0
SPLINE
  5
43E
100
AcDbEntity
  8
03___PRT_ALL_CURVES
100
AcDbSpline
 62
7
  6
BYLAYER
 70
0
 71
3
 72
188
 73
184
 74
0
 42
0.0000001
 43
0.0000001
 44
0.0000000001
 40
0.0
 40
0.0
 40
0.0
 40
0.0
 40
0.03125
 40
0.046875
 40
0.0625
 40
0.078125
 40
0.0859375
 40
0.09375
 40
0.1015625
 40
0.109375
 40
0.11328125
 40
0.1171875
 40
0.12109375
 40
0.123046875
 40
0.1240234375
 40
0.125
 40
0.1259765625
 40
0.126953125
 40
0.12890625
 40
0.1328125
 40
0.13671875
 40
0.140625
 40
0.1484375
 40
0.15625
 40
0.171875
 40
0.1875
 40
0.203125
 40
0.2109375
 40
0.21875
 40
0.2265625
 40
0.234375
 40
0.23828125
 40
0.2421875
 40
0.244140625
 40
0.24609375
 40
0.248046875
 40
0.2490234375
 40
0.25
 40
0.2509765625
 40
0.251953125
 40
0.25390625
 40
0.255859375
 40
0.2578125
 40
0.26171875
 40
0.265625
 40
0.2734375
 40
0.28125
 40
0.2890625
 40
0.296875
 40
0.3125
 40
0.328125
 40
0.3359375
 40
0.34375
 40
0.3515625
 40
0.359375
 40
0.36328125
 40
0.3671875
 40
0.369140625
 40
0.37109375
 40
0.373046875
 40
0.3740234375
 40
0.3745117188
 40
0.375
 40
0.3754882812
 40
0.3759765625
 40
0.376953125
 40
0.37890625
 40
0.380859375
 40
0.3828125
 40
0.38671875
 40
0.390625
 40
0.3984375
 40
0.40625
 40
0.4140625
 40
0.421875
 40
0.4375
 40
0.453125
 40
0.4609375
 40
0.46875
 40
0.4765625
 40
0.484375
 40
0.48828125
 40
0.4921875
 40
0.494140625
 40
0.49609375
 40
0.498046875
 40
0.4990234375
 40
0.4995117188
 40
0.5
 40
0.5004882812
 40
0.5009765625
 40
0.501953125
 40
0.50390625
 40
0.505859375
 40
0.5078125
 40
0.51171875
 40
0.515625
 40
0.5234375
 40
0.53125
 40
0.5390625
 40
0.546875
 40
0.5625
 40
0.578125
 40
0.5859375
 40
0.59375
 40
0.6015625
 40
0.609375
 40
0.61328125
 40
0.6171875
 40
0.619140625
 40
0.62109375
 40
0.623046875
 40
0.6240234375
 40
0.6245117188
 40
0.625
 40
0.6254882812
 40
0.6259765625
 40
0.626953125
 40
0.62890625
 40
0.630859375
 40
0.6328125
 40
0.63671875
 40
0.640625
 40
0.6484375
 40
0.65625
 40
0.6640625
 40
0.671875
 40
0.6875
 40
0.703125
 40
0.7109375
 40
0.71875
 40
0.7265625
 40
0.734375
 40
0.73828125
 40
0.7421875
 40
0.744140625
 40
0.74609375
 40
0.748046875
 40
0.7490234375
 40
0.7495117188
 40
0.75
 40
0.7504882812
 40
0.7509765625
 40
0.751953125
 40
0.75390625
 40
0.755859375
 40
0.7578125
 40
0.76171875
 40
0.765625
 40
0.7734375
 40
0.78125
 40
0.7890625
 40
0.796875
 40
0.8125
 40
0.828125
 40
0.8359375
 40
0.84375
 40
0.8515625
 40
0.859375
 40
0.86328125
 40
0.8671875
 40
0.869140625
 40
0.87109375
 40
0.873046875
 40
0.8740234375
 40
0.8745117188
 40
0.875
 40
0.8754882812
 40
0.8759765625
 40
0.876953125
 40
0.87890625
 40
0.880859375
 40
0.8828125
 40
0.88671875
 40
0.890625
 40
0.8984375
 40
0.90625
 40
0.9140625
 40
0.921875
 40
0.9375
 40
0.953125
 40
0.96875
 40
1.0
 40
1.0
 40
1.0
 40
1.0
 10
17.4354032009
 20
14.036432989
 30
0.0
 10
17.4310035726
 20
14.0321692958
 30
0.0
 10
17.4244041302
 20
14.025773756
 30
0.0
 10
17.4156048733
 20
14.0172463697
 30
0.0
 10
17.4090054316
 20
14.0108508295
 30
0.0
 10
17.4035058937
 20
14.0055212142
 30
0.0
 10
17.3991062704
 20
14.0012575186
 30
0.0
 10
17.3958065338
 20
13.998059756
 30
0.0
 10
17.3925068701
 20
13.9948619588
 30
0.0
 10
17.3897569235
 20
13.9921972356
 30
0.0
 10
17.3875574741
 20
13.9900652156
 30
0.0
 10
17.3859064994
 20
13.9884668602
 30
0.0
 10
17.3845351012
 20
13.9871327992
 30
0.0
 10
17.38356646
 20
13.9862030741
 30
0.0
 10
17.3830264765
 20
13.9856653733
 30
0.0
 10
17.3825833866
 20
13.9852802093
 30
0.0
 10
17.382285943
 20
13.9848258134
 30
0.0
 10
17.3818385485
 20
13.9842441012
 30
0.0
 10
17.3810792781
 20
13.9832148533
 30
0.0
 10
17.3799822312
 20
13.9817503815
 30
0.0
 10
17.3786710718
 20
13.9799904976
 30
0.0
 10
17.3769210092
 20
13.9776448651
 30
0.0
 10
17.3747340644
 20
13.9747125234
 30
0.0
 10
17.3712345987
 20
13.9700209449
 30
0.0
 10
17.3668603881
 20
13.964156414
 30
0.0
 10
17.3616112829
 20
13.9571190018
 30
0.0
 10
17.3572370415
 20
13.9512544858
 30
0.0
 10
17.3537376437
 20
13.9465628747
 30
0.0
 10
17.3511131016
 20
13.9430441648
 30
0.0
 10
17.3484885368
 20
13.9395254603
 30
0.0
 10
17.3463014698
 20
13.9365931897
 30
0.0
 10
17.3445516588
 20
13.9342474111
 30
0.0
 10
17.3434583853
 20
13.9327812131
 30
0.0
 10
17.3425829457
 20
13.9316084526
 30
0.0
 10
17.3419286134
 20
13.9307283403
 30
0.0
 10
17.341376187
 20
13.9299966373
 30
0.0
 10
17.3409502811
 20
13.9294074084
 30
0.0
 10
17.3405870355
 20
13.9289760522
 30
0.0
 10
17.3403910372
 20
13.9285043671
 30
0.0
 10
17.3400712845
 20
13.9278895412
 30
0.0
 10
17.3396916377
 20
13.9271161754
 30
0.0
 10
17.3392274821
 20
13.9261902052
 30
0.0
 10
17.3386116046
 20
13.9249548558
 30
0.0
 10
17.3378407317
 20
13.9234109164
 30
0.0
 10
17.3366079085
 20
13.9209404751
 30
0.0
 10
17.3350666827
 20
13.9178524709
 30
0.0
 10
17.333217296
 20
13.9141468455
 30
0.0
 10
17.3313678868
 20
13.9104412256
 30
0.0
 10
17.3289020158
 20
13.9055003971
 30
0.0
 10
17.3258196744
 20
13.8993243622
 30
0.0
 10
17.3227373336
 20
13.893148327
 30
0.0
 10
17.3202714615
 20
13.8882074989
 30
0.0
 10
17.3184220553
 20
13.884501878
 30
0.0
 10
17.3165726577
 20
13.8807962561
 30
0.0
 10
17.3150314661
 20
13.8777082413
 30
0.0
 10
17.313798573
 20
13.8752378215
 30
0.0
 10
17.3130278779
 20
13.8736938275
 30
0.0
 10
17.3124116354
 20
13.8724585901
 30
0.0
 10
17.3119485949
 20
13.8715322775
 30
0.0
 10
17.3115654593
 20
13.8707599833
 30
0.0
 10
17.3112919038
 20
13.8702200977
 30
0.0
 10
17.3111439565
 20
13.8699104668
 30
0.0
 10
17.3110094174
 20
13.8696814122
 30
0.0
 10
17.3109650078
 20
13.8694402457
 30
0.0
 10
17.3108743568
 20
13.8691229151
 30
0.0
 10
17.3107303651
 20
13.8685656181
 30
0.0
 10
17.3105170049
 20
13.8677705087
 30
0.0
 10
17.3102642504
 20
13.8668159368
 30
0.0
 10
17.3099260995
 20
13.8655433283
 30
0.0
 10
17.309503803
 20
13.8639525149
 30
0.0
 10
17.3088279094
 20
13.861407243
 30
0.0
 10
17.3079831176
 20
13.8582256429
 30
0.0
 10
17.3069693352
 20
13.8544077272
 30
0.0
 10
17.3059555614
 20
13.8505898103
 30
0.0
 10
17.30460386
 20
13.8454992548
 30
0.0
 10
17.3029142344
 20
13.8391360604
 30
0.0
 10
17.301224608
 20
13.8327728659
 30
0.0
 10
17.2998729079
 20
13.8276823105
 30
0.0
 10
17.2988591303
 20
13.8238643935
 30
0.0
 10
17.2978453621
 20
13.8200464782
 30
0.0
 10
17.2970005261
 20
13.8168648768
 30
0.0
 10
17.2963247227
 20
13.8143196076
 30
0.0
 10
17.2959021965
 20
13.8127287871
 30
0.0
 10
17.295564517
 20
13.8114561932
 30
0.0
 10
17.2953103225
 20
13.8105015766
 30
0.0
 10
17.2951014675
 20
13.8097066075
 30
0.0
 10
17.2949494333
 20
13.80914906
 30
0.0
 10
17.2948716686
 20
13.8088321308
 30
0.0
 10
17.2947876763
 20
13.8085897311
 30
0.0
 10
17.2948018031
 20
13.8083653081
 30
0.0
 10
17.2947864137
 20
13.808059807
 30
0.0
 10
17.2947754285
 20
13.8075281017
 30
0.0
 10
17.2947513985
 20
13.8067669951
 30
0.0
 10
17.2947261308
 20
13.8058543211
 30
0.0
 10
17.2946911943
 20
13.804637194
 30
0.0
 10
17.2946479504
 20
13.8031158633
 30
0.0
 10
17.2945785217
 20
13.8006816906
 30
0.0
 10
17.2944918176
 20
13.7976389896
 30
0.0
 10
17.2943877376
 20
13.793987742
 30
0.0
 10
17.2942836669
 20
13.7903364962
 30
0.0
 10
17.2941449028
 20
13.7854681678
 30
0.0
 10
17.2939714489
 20
13.7793827575
 30
0.0
 10
17.2937979942
 20
13.773297347
 30
0.0
 10
17.2936592314
 20
13.7684290189
 30
0.0
 10
17.2935551569
 20
13.7647777721
 30
0.0
 10
17.2934510915
 20
13.7611265279
 30
0.0
 10
17.2933643418
 20
13.7580838166
 30
0.0
 10
17.293295006
 20
13.7556496648
 30
0.0
 10
17.2932515256
 20
13.7541282808
 30
0.0
 10
17.2932170746
 20
13.7529112632
 30
0.0
 10
17.2931903237
 20
13.7519982547
 30
0.0
 10
17.2931709345
 20
13.7512381946
 30
0.0
 10
17.2931516645
 20
13.7507046211
 30
0.0
 10
17.2931495494
 20
13.7504021132
 30
0.0
 10
17.293122902
 20
13.7501684961
 30
0.0
 10
17.2931920506
 20
13.7499606282
 30
0.0
 10
17.293250834
 20
13.7496744894
 30
0.0
 10
17.2933692734
 20
13.7491779311
 30
0.0
 10
17.2935303332
 20
13.7484663743
 30
0.0
 10
17.2937270888
 20
13.7476134427
 30
0.0
 10
17.2939882129
 20
13.7464758734
 30
0.0
 10
17.2943150346
 20
13.7450540237
 30
0.0
 10
17.2948377164
 20
13.7427790017
 30
0.0
 10
17.2954911486
 20
13.7399352457
 30
0.0
 10
17.296275233
 20
13.7365227293
 30
0.0
 10
17.2970593266
 20
13.7331102153
 30
0.0
 10
17.2981047814
 20
13.7285601958
 30
0.0
 10
17.2994116012
 20
13.7228726717
 30
0.0
 10
17.3007184202
 20
13.7171851474
 30
0.0
 10
17.3017638763
 20
13.7126351283
 30
0.0
 10
17.3025479661
 20
13.709222613
 30
0.0
 10
17.3033320647
 20
13.7058101016
 30
0.0
 10
17.3039854526
 20
13.7029663301
 30
0.0
 10
17.3045082248
 20
13.7006913395
 30
0.0
 10
17.3048348167
 20
13.69926941
 30
0.0
 10
17.3050964123
 20
13.6981320047
 30
0.0
 10
17.3052917271
 20
13.6972785719
 30
0.0
 10
17.3054572951
 20
13.6965685831
 30
0.0
 10
17.3055676867
 20
13.6960692257
 30
0.0
 10
17.3056393647
 20
13.6957875718
 30
0.0
 10
17.305668905
 20
13.6955659276
 30
0.0
 10
17.3057910198
 20
13.6953840521
 30
0.0
 10
17.3059215486
 20
13.6951276797
 30
0.0
 10
17.3061650189
 20
13.6946854911
 30
0.0
 10
17.306504968
 20
13.6940504141
 30
0.0
 10
17.3069162736
 20
13.693289768
 30
0.0
 10
17.3074635052
 20
13.692275068
 30
0.0
 10
17.3081479473
 20
13.691006866
 30
0.0
 10
17.3092428296
 20
13.6889776462
 30
0.0
 10
17.3106115097
 20
13.6864411546
 30
0.0
 10
17.3122538928
 20
13.6833973504
 30
0.0
 10
17.3138962847
 20
13.6803535501
 30
0.0
 10
17.3160861374
 20
13.6762951483
 30
0.0
 10
17.3188234546
 20
13.6712221465
 30
0.0
 10
17.3215607709
 20
13.6661491444
 30
0.0
 10
17.3237506249
 20
13.6620907432
 30
0.0
 10
17.3253930131
 20
13.659046941
 30
0.0
 10
17.3270354101
 20
13.6560031435
 30
0.0
 10
17.328404047
 20
13.6534666313
 30
0.0
 10
17.3294990174
 20
13.6514374535
 30
0.0
 10
17.3301832353
 20
13.6501691446
 30
0.0
 10
17.3307309271
 20
13.649154664
 30
0.0
 10
17.3311408264
 20
13.6483933477
 30
0.0
 10
17.3314851756
 20
13.6477603678
 30
0.0
 10
17.331720791
 20
13.6473144354
 30
0.0
 10
17.3318639053
 20
13.6470640615
 30
0.0
 10
17.3319473614
 20
13.6468637604
 30
0.0
 10
17.3321220974
 20
13.6467113198
 30
0.0
 10
17.3323232392
 20
13.6464913714
 30
0.0
 10
17.332690072
 20
13.6461142398
 30
0.0
 10
17.3332063632
 20
13.6455714139
 30
0.0
 10
17.3338292323
 20
13.6449217634
 30
0.0
 10
17.3346585649
 20
13.6440549548
 30
0.0
 10
17.3356956277
 20
13.6429716522
 30
0.0
 10
17.3373547062
 20
13.6412382517
 30
0.0
 10
17.3394286306
 20
13.639071541
 30
0.0
 10
17.3419173072
 20
13.636471471
 30
0.0
 10
17.3444059925
 20
13.6338714056
 30
0.0
 10
17.3477242365
 20
13.6304046502
 30
0.0
 10
17.3518720426
 20
13.6260712064
 30
0.0
 10
17.3568494094
 20
13.6208710737
 30
0.0
 10
17.3634858987
 20
13.6139375634
 30
0.0
 10
17.3684632656
 20
13.6087374307
 30
0.0
 10
17.3717815102
 20
13.6052706756
 30
0.0
  0
SPLINE
  5
43F
100
AcDbEntity
  8
03___PRT_ALL_CURVES
100
AcDbSpline
 62
7
  6
BYLAYER
 70
0
 71
3
 72
81
 73
77
 74
0
 42
0.0000001
 43
0.0000001
 44
0.0000000001
 40
0.0
 40
0.0
 40
0.0
 40
0.0
 40
0.0625
 40
0.09375
 40
0.109375
 40
0.125
 40
0.140625
 40
0.15625
 40
0.16015625
 40
0.1640625
 40
0.166015625
 40
0.16796875
 40
0.171875
 40
0.1796875
 40
0.1875
 40
0.203125
 40
0.21875
 40
0.25
 40
0.28125
 40
0.296875
 40
0.3125
 40
0.3203125
 40
0.328125
 40
0.33203125
 40
0.333984375
 40
0.3359375
 40
0.33984375
 40
0.34375
 40
0.359375
 40
0.375
 40
0.390625
 40
0.40625
 40
0.4375
 40
0.453125
 40
0.46875
 40
0.484375
 40
0.4921875
 40
0.49609375
 40
0.5
 40
0.50390625
 40
0.5078125
 40
0.515625
 40
0.53125
 40
0.546875
 40
0.5625
 40
0.59375
 40
0.609375
 40
0.625
 40
0.640625
 40
0.65625
 40
0.66015625
 40
0.6640625
 40
0.666015625
 40
0.66796875
 40
0.671875
 40
0.6796875
 40
0.6875
 40
0.703125
 40
0.71875
 40
0.75
 40
0.78125
 40
0.796875
 40
0.8125
 40
0.8203125
 40
0.828125
 40
0.83203125
 40
0.833984375
 40
0.8359375
 40
0.83984375
 40
0.84375
 40
0.859375
 40
0.875
 40
0.890625
 40
0.90625
 40
0.9375
 40
1.0
 40
1.0
 40
1.0
 40
1.0
 10
17.3717815115
 20
13.6052706746
 30
0.0
 10
17.37499911
 20
13.6030086332
 30
0.0
 10
17.379825487
 20
13.5996155584
 30
0.0
 10
17.3854563332
 20
13.595657016
 30
0.0
 10
17.3886738553
 20
13.5933949275
 30
0.0
 10
17.3910872888
 20
13.5916985409
 30
0.0
 10
17.3934996067
 20
13.5900014677
 30
0.0
 10
17.3953119731
 20
13.5887305878
 30
0.0
 10
17.3965153526
 20
13.5878803407
 30
0.0
 10
17.3970239997
 20
13.5875305261
 30
0.0
 10
17.3974140304
 20
13.5872402817
 30
0.0
 10
17.397865818
 20
13.5869880441
 30
0.0
 10
17.3986851399
 20
13.5865642871
 30
0.0
 10
17.3998406288
 20
13.5859497065
 30
0.0
 10
17.4016977777
 20
13.5849715265
 30
0.0
 10
17.4040163482
 20
13.5837470375
 30
0.0
 10
17.4077276678
 20
13.581788847
 30
0.0
 10
17.4123662292
 20
13.5793407264
 30
0.0
 10
17.4170051342
 20
13.5768928958
 30
0.0
 10
17.420715904
 20
13.5749342411
 30
0.0
 10
17.4230358488
 20
13.5737109123
 30
0.0
 10
17.4248901803
 20
13.572730354
 30
0.0
 10
17.4260528416
 20
13.572121828
 30
0.0
 10
17.4268592813
 20
13.5716871963
 30
0.0
 10
17.4273317182
 20
13.5714523902
 30
0.0
 10
17.4278479002
 20
13.5712686383
 30
0.0
 10
17.4284781755
 20
13.571021498
 30
0.0
 10
17.4300031426
 20
13.5704427237
 30
0.0
 10
17.4322854242
 20
13.5695685296
 30
0.0
 10
17.4353314218
 20
13.568406387
 30
0.0
 10
17.4383766246
 20
13.5672433158
 30
0.0
 10
17.4424371934
 20
13.5656929077
 30
0.0
 10
17.4464975613
 20
13.5641422352
 30
0.0
 10
17.4505583082
 20
13.5625920908
 30
0.0
 10
17.4536029322
 20
13.5614281627
 30
0.0
 10
17.4561430816
 20
13.560462402
 30
0.0
 10
17.457915374
 20
13.5597781702
 30
0.0
 10
17.4589371875
 20
13.5593999827
 30
0.0
 10
17.4596779835
 20
13.5590802785
 30
0.0
 10
17.4605164982
 20
13.5588984274
 30
0.0
 10
17.4616004325
 20
13.5586078746
 30
0.0
 10
17.4635131986
 20
13.5581218107
 30
0.0
 10
17.4662374185
 20
13.5574157206
 30
0.0
 10
17.4695100374
 20
13.5565734277
 30
0.0
 10
17.4738722824
 20
13.5554486103
 30
0.0
 10
17.4782348988
 20
13.5543243235
 30
0.0
 10
17.4825973362
 20
13.5531997652
 30
0.0
 10
17.4858693296
 20
13.5523566303
 30
0.0
 10
17.4891407511
 20
13.5515124959
 30
0.0
 10
17.4915959091
 20
13.5508821807
 30
0.0
 10
17.4932302066
 20
13.5504576402
 30
0.0
 10
17.493914846
 20
13.5502871918
 30
0.0
 10
17.494453968
 20
13.5501358017
 30
0.0
 10
17.4950245022
 20
13.5500393826
 30
0.0
 10
17.4960375318
 20
13.5498961898
 30
0.0
 10
17.4974771021
 20
13.5496783028
 30
0.0
 10
17.4997846703
 20
13.549337131
 30
0.0
 10
17.5026676725
 20
13.5489081151
 30
0.0
 10
17.5072812958
 20
13.5482231219
 30
0.0
 10
17.5130480087
 20
13.5473663426
 30
0.0
 10
17.5188149622
 20
13.5465099245
 30
0.0
 10
17.5234282005
 20
13.5458243533
 30
0.0
 10
17.5263121653
 20
13.5453967824
 30
0.0
 10
17.5286177602
 20
13.5450526484
 30
0.0
 10
17.5300623539
 20
13.5448423021
 30
0.0
 10
17.531066361
 20
13.5446855654
 30
0.0
 10
17.5316513578
 20
13.5446108564
 30
0.0
 10
17.5322788349
 20
13.5445920978
 30
0.0
 10
17.5330486614
 20
13.5445495255
 30
0.0
 10
17.5349081956
 20
13.5444630919
 30
0.0
 10
17.5376924774
 20
13.5443268305
 30
0.0
 10
17.5414077221
 20
13.5441489272
 30
0.0
 10
17.5451221994
 20
13.5439700132
 30
0.0
 10
17.5500751035
 20
13.5437318139
 30
0.0
 10
17.5587425601
 20
13.5433147996
 30
0.0
 10
17.5661718517
 20
13.5429574156
 30
0.0
 10
17.5711247032
 20
13.5427191469
 30
0.0
  0
SPLINE
  5
440
100
AcDbEntity
  8
03___PRT_ALL_CURVES
100
AcDbSpline
 62
7
  6
BYLAYER
 70
0
 71
3
 72
76
 73
72
 74
0
 42
0.0000001
 43
0.0000001
 44
0.0000000001
 40
0.0
 40
0.0
 40
0.0
 40
0.0
 40
0.0625
 40
0.09375
 40
0.109375
 40
0.125
 40
0.140625
 40
0.15625
 40
0.16015625
 40
0.1640625
 40
0.166015625
 40
0.16796875
 40
0.171875
 40
0.1796875
 40
0.1875
 40
0.203125
 40
0.21875
 40
0.25
 40
0.28125
 40
0.296875
 40
0.3125
 40
0.3203125
 40
0.328125
 40
0.33203125
 40
0.3359375
 40
0.34375
 40
0.359375
 40
0.375
 40
0.390625
 40
0.40625
 40
0.4375
 40
0.453125
 40
0.46875
 40
0.484375
 40
0.4921875
 40
0.49609375
 40
0.5
 40
0.50390625
 40
0.5078125
 40
0.515625
 40
0.53125
 40
0.546875
 40
0.5625
 40
0.59375
 40
0.609375
 40
0.625
 40
0.640625
 40
0.65625
 40
0.6640625
 40
0.66796875
 40
0.671875
 40
0.6796875
 40
0.6875
 40
0.703125
 40
0.71875
 40
0.75
 40
0.78125
 40
0.796875
 40
0.8125
 40
0.8203125
 40
0.828125
 40
0.83203125
 40
0.8359375
 40
0.83984375
 40
0.84375
 40
0.859375
 40
0.875
 40
0.890625
 40
0.90625
 40
0.9375
 40
1.0
 40
1.0
 40
1.0
 40
1.0
 10
17.5711246983
 20
13.5427191469
 30
0.0
 10
17.5759177103
 20
13.5429298729
 30
0.0
 10
17.5831072183
 20
13.5432459429
 30
0.0
 10
17.5914950131
 20
13.5436147574
 30
0.0
 10
17.5962879879
 20
13.5438254141
 30
0.0
 10
17.5998828614
 20
13.5439836712
 30
0.0
 10
17.6034771905
 20
13.544140917
 30
0.0
 10
17.6061744639
 20
13.544261687
 30
0.0
 10
17.607970272
 20
13.5443377902
 30
0.0
 10
17.6087220583
 20
13.5443760624
 30
0.0
 10
17.6093152457
 20
13.5443913712
 30
0.0
 10
17.6099385731
 20
13.5444626654
 30
0.0
 10
17.6110433998
 20
13.5446134424
 30
0.0
 10
17.6126144171
 20
13.5448152662
 30
0.0
 10
17.6151321281
 20
13.5451457693
 30
0.0
 10
17.6182778686
 20
13.5455562981
 30
0.0
 10
17.6233118359
 20
13.546214615
 30
0.0
 10
17.6296040189
 20
13.5470368793
 30
0.0
 10
17.6358963279
 20
13.5478598325
 30
0.0
 10
17.6409300937
 20
13.5485170473
 30
0.0
 10
17.6440763378
 20
13.5489303313
 30
0.0
 10
17.6465930164
 20
13.5492551861
 30
0.0
 10
17.6481666621
 20
13.549471389
 30
0.0
 10
17.6494239259
 20
13.5496141897
 30
0.0
 10
17.6506872237
 20
13.5498671017
 30
0.0
 10
17.6529007983
 20
13.550360857
 30
0.0
 10
17.6560615819
 20
13.5510394708
 30
0.0
 10
17.6598551505
 20
13.5518652763
 30
0.0
 10
17.6636485514
 20
13.5526880074
 30
0.0
 10
17.6687064756
 20
13.5537860866
 30
0.0
 10
17.6737643975
 20
13.5548836887
 30
0.0
 10
17.6788222843
 20
13.555981894
 30
0.0
 10
17.6826158069
 20
13.5568042153
 30
0.0
 10
17.6857767319
 20
13.557493674
 30
0.0
 10
17.6879900543
 20
13.5579680771
 30
0.0
 10
17.6892537563
 20
13.5582519953
 30
0.0
 10
17.690204501
 20
13.5584287898
 30
0.0
 10
17.6911438994
 20
13.5587437456
 30
0.0
 10
17.6924003884
 20
13.5591154944
 30
0.0
 10
17.6945974
 20
13.5597885086
 30
0.0
 10
17.6977369524
 20
13.5607382176
 30
0.0
 10
17.7015040016
 20
13.5618828972
 30
0.0
 10
17.7065268824
 20
13.563407361
 30
0.0
 10
17.7115496997
 20
13.5649324208
 30
0.0
 10
17.716572596
 20
13.5664570246
 30
0.0
 10
17.7203395947
 20
13.5676012495
 30
0.0
 10
17.7241072483
 20
13.5687426141
 30
0.0
 10
17.727244921
 20
13.5697026422
 30
0.0
 10
17.7294452864
 20
13.5703572423
 30
0.0
 10
17.730696402
 20
13.5707584943
 30
0.0
 10
17.7319240287
 20
13.5712621766
 30
0.0
 10
17.7334666047
 20
13.5718567075
 30
0.0
 10
17.7359302316
 20
13.5728275572
 30
0.0
 10
17.7390113044
 20
13.574034405
 30
0.0
 10
17.74394016
 20
13.5759691326
 30
0.0
 10
17.7501015297
 20
13.5783861168
 30
0.0
 10
17.7562627743
 20
13.5808040881
 30
0.0
 10
17.7611918302
 20
13.5827372363
 30
0.0
 10
17.7642724022
 20
13.5839480325
 30
0.0
 10
17.7667370557
 20
13.5849107882
 30
0.0
 10
17.7682770184
 20
13.5855259243
 30
0.0
 10
17.7695100093
 20
13.5859873104
 30
0.0
 10
17.7704319577
 20
13.5864174699
 30
0.0
 10
17.7713531229
 20
13.5868712014
 30
0.0
 10
17.7731958562
 20
13.5877665388
 30
0.0
 10
17.7759597869
 20
13.5891146378
 30
0.0
 10
17.7796451245
 20
13.5909091923
 30
0.0
 10
17.7833304363
 20
13.5927045254
 30
0.0
 10
17.7882441943
 20
13.5950980312
 30
0.0
 10
17.7968432667
 20
13.5992867937
 30
0.0
 10
17.8042139016
 20
13.602877118
 30
0.0
 10
17.8091276579
 20
13.6052706772
 30
0.0
  0
SPLINE
  5
441
100
AcDbEntity
  8
03___PRT_ALL_CURVES
100
AcDbSpline
 62
7
  6
BYLAYER
 70
0
 71
3
 72
179
 73
175
 74
0
 42
0.0000001
 43
0.0000001
 44
0.0000000001
 40
0.0
 40
0.0
 40
0.0
 40
0.0
 40
0.03125
 40
0.046875
 40
0.0625
 40
0.078125
 40
0.09375
 40
0.1015625
 40
0.109375
 40
0.11328125
 40
0.1171875
 40
0.12109375
 40
0.123046875
 40
0.1240234375
 40
0.125
 40
0.1259765625
 40
0.126953125
 40
0.12890625
 40
0.1328125
 40
0.13671875
 40
0.140625
 40
0.1484375
 40
0.15625
 40
0.171875
 40
0.1875
 40
0.203125
 40
0.21875
 40
0.2265625
 40
0.234375
 40
0.23828125
 40
0.2421875
 40
0.24609375
 40
0.248046875
 40
0.2490234375
 40
0.25
 40
0.2509765625
 40
0.251953125
 40
0.25390625
 40
0.2578125
 40
0.26171875
 40
0.265625
 40
0.2734375
 40
0.28125
 40
0.296875
 40
0.3125
 40
0.328125
 40
0.3359375
 40
0.34375
 40
0.3515625
 40
0.359375
 40
0.36328125
 40
0.3671875
 40
0.37109375
 40
0.373046875
 40
0.3740234375
 40
0.375
 40
0.3759765625
 40
0.376953125
 40
0.37890625
 40
0.3828125
 40
0.38671875
 40
0.390625
 40
0.3984375
 40
0.40625
 40
0.4140625
 40
0.421875
 40
0.4375
 40
0.453125
 40
0.4609375
 40
0.46875
 40
0.4765625
 40
0.484375
 40
0.48828125
 40
0.4921875
 40
0.494140625
 40
0.49609375
 40
0.498046875
 40
0.4990234375
 40
0.4995117188
 40
0.5
 40
0.5004882812
 40
0.5009765625
 40
0.501953125
 40
0.50390625
 40
0.505859375
 40
0.5078125
 40
0.51171875
 40
0.515625
 40
0.5234375
 40
0.53125
 40
0.5390625
 40
0.546875
 40
0.5625
 40
0.578125
 40
0.5859375
 40
0.59375
 40
0.6015625
 40
0.609375
 40
0.61328125
 40
0.6171875
 40
0.619140625
 40
0.62109375
 40
0.623046875
 40
0.6240234375
 40
0.6245117188
 40
0.625
 40
0.6254882812
 40
0.6259765625
 40
0.626953125
 40
0.62890625
 40
0.630859375
 40
0.6328125
 40
0.63671875
 40
0.640625
 40
0.6484375
 40
0.65625
 40
0.6640625
 40
0.671875
 40
0.6875
 40
0.703125
 40
0.7109375
 40
0.71875
 40
0.7265625
 40
0.734375
 40
0.73828125
 40
0.7421875
 40
0.744140625
 40
0.74609375
 40
0.748046875
 40
0.7490234375
 40
0.7495117188
 40
0.75
 40
0.7504882812
 40
0.7509765625
 40
0.751953125
 40
0.75390625
 40
0.755859375
 40
0.7578125
 40
0.76171875
 40
0.765625
 40
0.7734375
 40
0.78125
 40
0.7890625
 40
0.796875
 40
0.8125
 40
0.828125
 40
0.8359375
 40
0.84375
 40
0.8515625
 40
0.859375
 40
0.86328125
 40
0.8671875
 40
0.869140625
 40
0.87109375
 40
0.873046875
 40
0.8740234375
 40
0.8745117188
 40
0.875
 40
0.8754882812
 40
0.8759765625
 40
0.876953125
 40
0.87890625
 40
0.880859375
 40
0.8828125
 40
0.88671875
 40
0.890625
 40
0.8984375
 40
0.90625
 40
0.9140625
 40
0.921875
 40
0.9375
 40
0.953125
 40
0.96875
 40
1.0
 40
1.0
 40
1.0
 40
1.0
 10
17.8091276531
 20
13.6052706746
 30
0.0
 10
17.814497477
 20
13.6086699948
 30
0.0
 10
17.8225522131
 20
13.6137689748
 30
0.0
 10
17.8332918602
 20
13.6205676159
 30
0.0
 10
17.8413465982
 20
13.625666594
 30
0.0
 10
17.849401326
 20
13.6307655822
 30
0.0
 10
17.8561136309
 20
13.6350147078
 30
0.0
 10
17.8614834037
 20
13.6384140783
 30
0.0
 10
17.8648396736
 20
13.6405385254
 30
0.0
 10
17.8675243189
 20
13.6422384483
 30
0.0
 10
17.8695388174
 20
13.6435123904
 30
0.0
 10
17.871214339
 20
13.64457719
 30
0.0
 10
17.8723935371
 20
13.6453163069
 30
0.0
 10
17.8730574763
 20
13.6457484071
 30
0.0
 10
17.8735832863
 20
13.646045023
 30
0.0
 10
17.8740026179
 20
13.6464466017
 30
0.0
 10
17.8745988676
 20
13.6469454279
 30
0.0
 10
17.875625
 20
13.6478354319
 30
0.0
 10
17.8770999504
 20
13.6490979479
 30
0.0
 10
17.8788660186
 20
13.6506167845
 30
0.0
 10
17.8812221286
 20
13.6526405666
 30
0.0
 10
17.884166803
 20
13.6551707508
 30
0.0
 10
17.888878541
 20
13.6592187902
 30
0.0
 10
17.8947681239
 20
13.6642789275
 30
0.0
 10
17.9018356651
 20
13.6703510527
 30
0.0
 10
17.908903183
 20
13.6764231956
 30
0.0
 10
17.914792824
 20
13.6814832885
 30
0.0
 10
17.9195044459
 20
13.6855314167
 30
0.0
 10
17.9224494155
 20
13.6880613752
 30
0.0
 10
17.9248049196
 20
13.6900856205
 30
0.0
 10
17.9265728388
 20
13.6916030421
 30
0.0
 10
17.9280419978
 20
13.6928699852
 30
0.0
 10
17.9290784689
 20
13.6937520862
 30
0.0
 10
17.9296581533
 20
13.6942635749
 30
0.0
 10
17.9301283682
 20
13.6946262583
 30
0.0
 10
17.9304630693
 20
13.6950689585
 30
0.0
 10
17.9309566061
 20
13.6956313147
 30
0.0
 10
17.9317982722
 20
13.6966284421
 30
0.0
 10
17.9330121664
 20
13.6980461112
 30
0.0
 10
17.934463911
 20
13.6997502241
 30
0.0
 10
17.9364012919
 20
13.7020213582
 30
0.0
 10
17.9388224286
 20
13.7048606239
 30
0.0
 10
17.9426965767
 20
13.7094032545
 30
0.0
 10
17.947539149
 20
13.7150816094
 30
0.0
 10
17.9533502833
 20
13.7218956071
 30
0.0
 10
17.9581928874
 20
13.7275739436
 30
0.0
 10
17.9620669657
 20
13.7321166147
 30
0.0
 10
17.964972544
 20
13.7355236094
 30
0.0
 10
17.9678780462
 20
13.7389306373
 30
0.0
 10
17.9702995357
 20
13.7417697239
 30
0.0
 10
17.972236195
 20
13.7440412246
 30
0.0
 10
17.9736901436
 20
13.7457442178
 30
0.0
 10
17.9748971423
 20
13.7471653902
 30
0.0
 10
17.9757511179
 20
13.7481562636
 30
0.0
 10
17.9762249317
 20
13.7487286403
 30
0.0
 10
17.9766202157
 20
13.7491405606
 30
0.0
 10
17.9768628912
 20
13.7496188482
 30
0.0
 10
17.9772396901
 20
13.7502334154
 30
0.0
 10
17.9778742866
 20
13.7513196938
 30
0.0
 10
17.9787938197
 20
13.7528658811
 30
0.0
 10
17.9798917091
 20
13.7547237195
 30
0.0
 10
17.9813575005
 20
13.7571999943
 30
0.0
 10
17.9831890745
 20
13.7602956271
 30
0.0
 10
17.9853872484
 20
13.7640102625
 30
0.0
 10
17.9875853461
 20
13.767724931
 30
0.0
 10
17.9905161696
 20
13.7726778108
 30
0.0
 10
17.9941796898
 20
13.7788689145
 30
0.0
 10
17.9978432137
 20
13.7850600168
 30
0.0
 10
18.0007740312
 20
13.7900128989
 30
0.0
 10
18.0029721468
 20
13.7937275604
 30
0.0
 10
18.0051702534
 20
13.7974422223
 30
0.0
 10
18.0070020368
 20
13.8005377726
 30
0.0
 10
18.0084674011
 20
13.8030142155
 30
0.0
 10
18.009383396
 20
13.8045619864
 30
0.0
 10
18.0101158662
 20
13.8058002167
 30
0.0
 10
18.0106661108
 20
13.8067288522
 30
0.0
 10
18.0111218104
 20
13.8075028336
 30
0.0
 10
18.0114463687
 20
13.8080443881
 30
0.0
 10
18.0116231357
 20
13.8083542108
 30
0.0
 10
18.0117802047
 20
13.8085855553
 30
0.0
 10
18.0118436462
 20
13.8088208084
 30
0.0
 10
18.0119608932
 20
13.8091331158
 30
0.0
 10
18.0121508593
 20
13.809680289
 30
0.0
 10
18.0124301947
 20
13.810461633
 30
0.0
 10
18.012761992
 20
13.8113993879
 30
0.0
 10
18.0132055778
 20
13.8126496781
 30
0.0
 10
18.0137596528
 20
13.8142125579
 30
0.0
 10
18.0146464004
 20
13.816713156
 30
0.0
 10
18.0157547568
 20
13.8198389069
 30
0.0
 10
18.017084818
 20
13.8235898066
 30
0.0
 10
18.0184148702
 20
13.8273407067
 30
0.0
 10
18.0201882763
 20
13.8323419067
 30
0.0
 10
18.0224050328
 20
13.8385934067
 30
0.0
 10
18.02462179
 20
13.8448449067
 30
0.0
 10
18.0263951949
 20
13.8498461067
 30
0.0
 10
18.0277252509
 20
13.8535970068
 30
0.0
 10
18.0290552979
 20
13.8573479065
 30
0.0
 10
18.0301636984
 20
13.8604736576
 30
0.0
 10
18.031050356
 20
13.8629742553
 30
0.0
 10
18.0316046601
 20
13.864537136
 30
0.0
 10
18.0320477757
 20
13.8657874244
 30
0.0
 10
18.0323810097
 20
13.866725185
 30
0.0
 10
18.0326558501
 20
13.867506511
 30
0.0
 10
18.0328538404
 20
13.8680537163
 30
0.0
 10
18.0329582307
 20
13.8683659724
 30
0.0
 10
18.0330611639
 20
13.8686013833
 30
0.0
 10
18.0330699086
 20
13.868832135
 30
0.0
 10
18.0331144222
 20
13.8691414291
 30
0.0
 10
18.0331770137
 20
13.8696819365
 30
0.0
 10
18.033274433
 20
13.8704544859
 30
0.0
 10
18.0333879107
 20
13.8713813757
 30
0.0
 10
18.0335404107
 20
13.872617288
 30
0.0
 10
18.033730626
 20
13.874162158
 30
0.0
 10
18.0340351995
 20
13.8766339615
 30
0.0
 10
18.0344158378
 20
13.8797237119
 30
0.0
 10
18.0348726375
 20
13.883431414
 30
0.0
 10
18.0353294282
 20
13.8871391157
 30
0.0
 10
18.0359384855
 20
13.8920827182
 30
0.0
 10
18.0366998061
 20
13.8982622211
 30
0.0
 10
18.0374611274
 20
13.9044417242
 30
0.0
 10
18.0380701835
 20
13.9093853265
 30
0.0
 10
18.038526978
 20
13.9130930287
 30
0.0
 10
18.0389837632
 20
13.916800729
 30
0.0
 10
18.0393644463
 20
13.9198904852
 30
0.0
 10
18.0396689286
 20
13.9223622768
 30
0.0
 10
18.039859376
 20
13.9239071768
 30
0.0
 10
18.0400113997
 20
13.9251430276
 30
0.0
 10
18.0401263326
 20
13.9260701052
 30
0.0
 10
18.0402191987
 20
13.9268420671
 30
0.0
 10
18.0402899185
 20
13.9273836234
 30
0.0
 10
18.0403214085
 20
13.9276912369
 30
0.0
 10
18.0403701575
 20
13.9279271508
 30
0.0
 10
18.0403228413
 20
13.9281431732
 30
0.0
 10
18.0402932616
 20
13.9284381414
 30
0.0
 10
18.040225885
 20
13.928951103
 30
0.0
 10
18.0401377949
 20
13.9296855953
 30
0.0
 10
18.040028593
 20
13.9305662628
 30
0.0
 10
18.0398842108
 20
13.9317407387
 30
0.0
 10
18.0397033153
 20
13.9332087471
 30
0.0
 10
18.0394141159
 20
13.9355576089
 30
0.0
 10
18.0390525366
 20
13.9384936696
 30
0.0
 10
18.0386186758
 20
13.9420169495
 30
0.0
 10
18.0381848058
 20
13.9455402274
 30
0.0
 10
18.0376063156
 20
13.9502379321
 30
0.0
 10
18.0368832017
 20
13.9561100626
 30
0.0
 10
18.0361600887
 20
13.9619821934
 30
0.0
 10
18.0355815972
 20
13.9666798977
 30
0.0
 10
18.0351477311
 20
13.9702031767
 30
0.0
 10
18.0347138556
 20
13.9737264529
 30
0.0
 10
18.0343523218
 20
13.976662525
 30
0.0
 10
18.0340630296
 20
13.9790113635
 30
0.0
 10
18.0338823704
 20
13.980479431
 30
0.0
 10
18.0337375032
 20
13.9816537857
 30
0.0
 10
18.0336297831
 20
13.9825348237
 30
0.0
 10
18.0335370569
 20
13.9832681566
 30
0.0
 10
18.0334779565
 20
13.983783188
 30
0.0
 10
18.0334351162
 20
13.9840748399
 30
0.0
 10
18.0334285325
 20
13.9843010488
 30
0.0
 10
18.033324297
 20
13.9844987038
 30
0.0
 10
18.0332193783
 20
13.9847722037
 30
0.0
 10
18.0330199006
 20
13.9852461881
 30
0.0
 10
18.0327432295
 20
13.9859257347
 30
0.0
 10
18.0324076727
 20
13.9867401522
 30
0.0
 10
18.0319615041
 20
13.9878264049
 30
0.0
 10
18.0314033687
 20
13.9891840966
 30
0.0
 10
18.0305105893
 20
13.9913564727
 30
0.0
 10
18.0293945337
 20
13.994071919
 30
0.0
 10
18.0280553018
 20
13.9973304647
 30
0.0
 10
18.0267160606
 20
14.0005890078
 30
0.0
 10
18.024930409
 20
14.0049337328
 30
0.0
 10
18.0226983433
 20
14.0103646387
 30
0.0
 10
18.0200198649
 20
14.016881726
 30
0.0
 10
18.0164485602
 20
14.0255711757
 30
0.0
 10
18.0137700818
 20
14.0320882629
 30
0.0
 10
18.0119844295
 20
14.0364329877
 30
0.0
  0
SPLINE
  5
442
100
AcDbEntity
  8
03___PRT_ALL_CURVES
100
AcDbSpline
 62
7
  6
BYLAYER
 70
0
 71
3
 72
104
 73
100
 74
0
 42
0.0000001
 43
0.0000001
 44
0.0000000001
 40
0.0
 40
0.0
 40
0.0
 40
0.0
 40
0.0625
 40
0.09375
 40
0.109375
 40
0.125
 40
0.140625
 40
0.1484375
 40
0.15625
 40
0.16015625
 40
0.1640625
 40
0.166015625
 40
0.1669921875
 40
0.16796875
 40
0.169921875
 40
0.171875
 40
0.1796875
 40
0.1875
 40
0.1953125
 40
0.203125
 40
0.21875
 40
0.25
 40
0.28125
 40
0.296875
 40
0.3046875
 40
0.3125
 40
0.3203125
 40
0.328125
 40
0.330078125
 40
0.33203125
 40
0.3330078125
 40
0.333984375
 40
0.3359375
 40
0.33984375
 40
0.34375
 40
0.3515625
 40
0.359375
 40
0.375
 40
0.390625
 40
0.40625
 40
0.421875
 40
0.4375
 40
0.453125
 40
0.46875
 40
0.4765625
 40
0.484375
 40
0.48828125
 40
0.4921875
 40
0.49609375
 40
0.498046875
 40
0.5
 40
0.501953125
 40
0.50390625
 40
0.5078125
 40
0.51171875
 40
0.515625
 40
0.5234375
 40
0.53125
 40
0.546875
 40
0.5625
 40
0.578125
 40
0.59375
 40
0.609375
 40
0.625
 40
0.640625
 40
0.6484375
 40
0.65625
 40
0.66015625
 40
0.6640625
 40
0.666015625
 40
0.6669921875
 40
0.66796875
 40
0.669921875
 40
0.671875
 40
0.6796875
 40
0.6875
 40
0.6953125
 40
0.703125
 40
0.71875
 40
0.75
 40
0.78125
 40
0.796875
 40
0.8046875
 40
0.8125
 40
0.8203125
 40
0.828125
 40
0.830078125
 40
0.83203125
 40
0.833984375
 40
0.8359375
 40
0.83984375
 40
0.84375
 40
0.8515625
 40
0.859375
 40
0.875
 40
0.890625
 40
0.90625
 40
0.9375
 40
1.0
 40
1.0
 40
1.0
 40
1.0
 10
18.0119844287
 20
14.036432989
 30
0.0
 10
18.0087427005
 20
14.0408479656
 30
0.0
 10
18.003880104
 20
14.0474704275
 30
0.0
 10
17.9982070895
 20
14.0551966432
 30
0.0
 10
17.9949653459
 20
14.0596116091
 30
0.0
 10
17.9925340969
 20
14.0629228741
 30
0.0
 10
17.9905078692
 20
14.0656821323
 30
0.0
 10
17.9888873062
 20
14.0678898289
 30
0.0
 10
17.9878734999
 20
14.0692689789
 30
0.0
 10
17.9870646407
 20
14.0703738113
 30
0.0
 10
17.9865541162
 20
14.0710608806
 30
0.0
 10
17.9862067447
 20
14.0715487453
 30
0.0
 10
17.9859926076
 20
14.0718167041
 30
0.0
 10
17.985719566
 20
14.0720439051
 30
0.0
 10
17.9853983977
 20
14.0723418376
 30
0.0
 10
17.9846110229
 20
14.0730454096
 30
0.0
 10
17.9834369207
 20
14.0741055834
 30
0.0
 10
17.9818674731
 20
14.0755163959
 30
0.0
 10
17.9802990896
 20
14.0769279448
 30
0.0
 10
17.9782075403
 20
14.078809753
 30
0.0
 10
17.974547503
 20
14.0821030379
 30
0.0
 10
17.9693187797
 20
14.086807661
 30
0.0
 10
17.9640901192
 20
14.0915123331
 30
0.0
 10
17.9604299939
 20
14.0948055494
 30
0.0
 10
17.9583385829
 20
14.0966874654
 30
0.0
 10
17.9567697752
 20
14.0980986835
 30
0.0
 10
17.9552019204
 20
14.0995107381
 30
0.0
 10
17.9540233579
 20
14.1005674338
 30
0.0
 10
17.9532418041
 20
14.101275545
 30
0.0
 10
17.9529099745
 20
14.1015651638
 30
0.0
 10
17.9526589326
 20
14.1018095201
 30
0.0
 10
17.9523551493
 20
14.1020075733
 30
0.0
 10
17.9517990238
 20
14.1023326529
 30
0.0
 10
17.9510173441
 20
14.1028082769
 30
0.0
 10
17.9497595115
 20
14.1035630026
 30
0.0
 10
17.9481896673
 20
14.1045085575
 30
0.0
 10
17.9456765492
 20
14.1060202448
 30
0.0
 10
17.9425356207
 20
14.107910266
 30
0.0
 10
17.9387663055
 20
14.1101781148
 30
0.0
 10
17.9349970439
 20
14.1124460106
 30
0.0
 10
17.931227769
 20
14.1147138951
 30
0.0
 10
17.9274584937
 20
14.1169817781
 30
0.0
 10
17.9236892332
 20
14.119249678
 30
0.0
 10
17.9205481337
 20
14.1211395397
 30
0.0
 10
17.9180353644
 20
14.1226515524
 30
0.0
 10
17.9164646324
 20
14.1235962792
 30
0.0
 10
17.9152086222
 20
14.1243527047
 30
0.0
 10
17.9142650392
 20
14.1249182602
 30
0.0
 10
17.9134837313
 20
14.125395167
 30
0.0
 10
17.9128474455
 20
14.1257641088
 30
0.0
 10
17.912400943
 20
14.1260752
 30
0.0
 10
17.9118372126
 20
14.1262550434
 30
0.0
 10
17.9111265213
 20
14.1265406811
 30
0.0
 10
17.9102241077
 20
14.1268819986
 30
0.0
 10
17.909147225
 20
14.1272983124
 30
0.0
 10
17.907709281
 20
14.1278510458
 30
0.0
 10
17.9059125701
 20
14.1285427678
 30
0.0
 10
17.9030374308
 20
14.1296490729
 30
0.0
 10
17.8994436445
 20
14.1310321087
 30
0.0
 10
17.8951310421
 20
14.1326916857
 30
0.0
 10
17.8908184547
 20
14.1343512794
 30
0.0
 10
17.8865058659
 20
14.1360108723
 30
0.0
 10
17.882193268
 20
14.1376704517
 30
0.0
 10
17.8778807076
 20
14.1393300859
 30
0.0
 10
17.8742867901
 20
14.1407129429
 30
0.0
 10
17.8714119184
 20
14.1418196129
 30
0.0
 10
17.8696145263
 20
14.1425104063
 30
0.0
 10
17.8681779807
 20
14.1430650456
 30
0.0
 10
17.8672770183
 20
14.1434071214
 30
0.0
 10
17.8666526002
 20
14.143655741
 30
0.0
 10
17.8662860024
 20
14.1437834674
 30
0.0
 10
17.8658825404
 20
14.143857175
 30
0.0
 10
17.8653908133
 20
14.1439677733
 30
0.0
 10
17.8642002974
 20
14.1442180127
 30
0.0
 10
17.8624188795
 20
14.1445997545
 30
0.0
 10
17.860041166
 20
14.1451050955
 30
0.0
 10
17.8576641185
 20
14.1456114124
 30
0.0
 10
17.8544944895
 20
14.1462861612
 30
0.0
 10
17.8489477467
 20
14.1474671294
 30
0.0
 10
17.8410237748
 20
14.1491541501
 30
0.0
 10
17.8330998117
 20
14.1508411776
 30
0.0
 10
17.8275530566
 20
14.1520221364
 30
0.0
 10
17.8243834469
 20
14.1526969001
 30
0.0
 10
17.8220063402
 20
14.1532031711
 30
0.0
 10
17.8196288488
 20
14.1537086841
 30
0.0
 10
17.8178468091
 20
14.1540899444
 30
0.0
 10
17.8166571047
 20
14.1543408122
 30
0.0
 10
17.8160652488
 20
14.154472149
 30
0.0
 10
17.8154617433
 20
14.1545805355
 30
0.0
 10
17.814601639
 20
14.1546158494
 30
0.0
 10
17.8135454878
 20
14.1546973822
 30
0.0
 10
17.8118450394
 20
14.1548069391
 30
0.0
 10
17.8097231107
 20
14.1549510398
 30
0.0
 10
17.8063259949
 20
14.1551776023
 30
0.0
 10
17.8020802965
 20
14.1554621773
 30
0.0
 10
17.7969851604
 20
14.1558030802
 30
0.0
 10
17.7901917497
 20
14.1562578222
 30
0.0
 10
17.7783032321
 20
14.1570535248
 30
0.0
 10
17.7681130908
 20
14.1577355884
 30
0.0
 10
17.7613196596
 20
14.1581902902
 30
0.0
  0
SPLINE
  5
443
100
AcDbEntity
  8
03___PRT_ALL_CURVES
100
AcDbSpline
 62
7
  6
BYLAYER
 70
0
 71
3
 72
111
 73
107
 74
0
 42
0.0000001
 43
0.0000001
 44
0.0000000001
 40
0.0
 40
0.0
 40
0.0
 40
0.0
 40
0.0625
 40
0.09375
 40
0.109375
 40
0.125
 40
0.140625
 40
0.1484375
 40
0.15625
 40
0.16015625
 40
0.1640625
 40
0.166015625
 40
0.1669921875
 40
0.16796875
 40
0.169921875
 40
0.171875
 40
0.1796875
 40
0.1875
 40
0.1953125
 40
0.203125
 40
0.21875
 40
0.25
 40
0.28125
 40
0.296875
 40
0.3046875
 40
0.3125
 40
0.3203125
 40
0.32421875
 40
0.328125
 40
0.330078125
 40
0.33203125
 40
0.3330078125
 40
0.333984375
 40
0.3359375
 40
0.33984375
 40
0.34375
 40
0.3515625
 40
0.359375
 40
0.375
 40
0.390625
 40
0.40625
 40
0.421875
 40
0.4375
 40
0.453125
 40
0.46875
 40
0.4765625
 40
0.484375
 40
0.48828125
 40
0.4921875
 40
0.49609375
 40
0.498046875
 40
0.4990234375
 40
0.5
 40
0.5009765625
 40
0.501953125
 40
0.50390625
 40
0.5078125
 40
0.51171875
 40
0.515625
 40
0.5234375
 40
0.53125
 40
0.546875
 40
0.5625
 40
0.578125
 40
0.59375
 40
0.609375
 40
0.625
 40
0.640625
 40
0.6484375
 40
0.65625
 40
0.66015625
 40
0.6640625
 40
0.666015625
 40
0.6669921875
 40
0.66796875
 40
0.669921875
 40
0.671875
 40
0.67578125
 40
0.6796875
 40
0.6875
 40
0.6953125
 40
0.703125
 40
0.71875
 40
0.75
 40
0.78125
 40
0.796875
 40
0.8046875
 40
0.8125
 40
0.8203125
 40
0.82421875
 40
0.828125
 40
0.830078125
 40
0.83203125
 40
0.8330078125
 40
0.833984375
 40
0.8359375
 40
0.83984375
 40
0.84375
 40
0.8515625
 40
0.859375
 40
0.875
 40
0.890625
 40
0.90625
 40
0.9375
 40
0.96875
 40
1.0
 40
1.0
 40
1.0
 40
1.0
 10
17.5072547183
 20
11.7847644987
 30
0.0
 10
17.5117040672
 20
11.7766645805
 30
0.0
 10
17.5183780927
 20
11.764514708
 30
0.0
 10
17.5261644484
 20
11.7503398399
 30
0.0
 10
17.530613805
 20
11.7422399394
 30
0.0
 10
17.533950793
 20
11.7361649465
 30
0.0
 10
17.5367317102
 20
11.7311026675
 30
0.0
 10
17.5389562334
 20
11.7270523617
 30
0.0
 10
17.54034704
 20
11.7245220195
 30
0.0
 10
17.5414585869
 20
11.7224952291
 30
0.0
 10
17.5421558098
 20
11.7212342273
 30
0.0
 10
17.5426388433
 20
11.7203400178
 30
0.0
 10
17.5429227206
 20
11.7198470467
 30
0.0
 10
17.5432361951
 20
11.7194218941
 30
0.0
 10
17.5436179217
 20
11.7188672726
 30
0.0
 10
17.544542392
 20
11.7175552598
 30
0.0
 10
17.5459256002
 20
11.7155792274
 30
0.0
 10
17.5477718767
 20
11.7129490975
 30
0.0
 10
17.5496176185
 20
11.7103177425
 30
0.0
 10
17.552078794
 20
11.7068096965
 30
0.0
 10
17.5563857644
 20
11.7006704173
 30
0.0
 10
17.5625386241
 20
11.6919001187
 30
0.0
 10
17.56869147
 20
11.6831297972
 30
0.0
 10
17.5729984597
 20
11.6769905501
 30
0.0
 10
17.5754596049
 20
11.6734824536
 30
0.0
 10
17.5773054398
 20
11.6708512535
 30
0.0
 10
17.5788437123
 20
11.668658994
 30
0.0
 10
17.580074158
 20
11.6669042727
 30
0.0
 10
17.5808435789
 20
11.6658096527
 30
0.0
 10
17.5814582171
 20
11.6649291911
 30
0.0
 10
17.5818444161
 20
11.6643897762
 30
0.0
 10
17.5821486797
 20
11.663933339
 30
0.0
 10
17.5824700854
 20
11.663567824
 30
0.0
 10
17.5830405086
 20
11.6629704099
 30
0.0
 10
17.5838512441
 20
11.6620949239
 30
0.0
 10
17.5851507427
 20
11.6607064618
 30
0.0
 10
17.586774321
 20
11.6589666674
 30
0.0
 10
17.5893724907
 20
11.6561853531
 30
0.0
 10
17.5926200502
 20
11.6527079016
 30
0.0
 10
17.596517187
 20
11.6485353064
 30
0.0
 10
17.6004143063
 20
11.6443626182
 30
0.0
 10
17.6043114304
 20
11.6401899557
 30
0.0
 10
17.6082085529
 20
11.6360172833
 30
0.0
 10
17.6121056772
 20
11.6318446245
 30
0.0
 10
17.6153532757
 20
11.6283673718
 30
0.0
 10
17.6179513659
 20
11.6255856519
 30
0.0
 10
17.6195751465
 20
11.6238468898
 30
0.0
 10
17.6208742298
 20
11.6224563086
 30
0.0
 10
17.6218483812
 20
11.6214121997
 30
0.0
 10
17.6226606867
 20
11.6205458405
 30
0.0
 10
17.6232282944
 20
11.619932066
 30
0.0
 10
17.6235542126
 20
11.619592772
 30
0.0
 10
17.6237942258
 20
11.6193060911
 30
0.0
 10
17.6240511555
 20
11.6191425343
 30
0.0
 10
17.6243878278
 20
11.6188815116
 30
0.0
 10
17.6249797535
 20
11.6184447316
 30
0.0
 10
17.6258239243
 20
11.6178102989
 30
0.0
 10
17.6268375445
 20
11.6170534573
 30
0.0
 10
17.6281888232
 20
11.6160427713
 30
0.0
 10
17.6298779952
 20
11.6147799493
 30
0.0
 10
17.6325806293
 20
11.6127591348
 30
0.0
 10
17.6359589359
 20
11.6102332194
 30
0.0
 10
17.6400128978
 20
11.6072020764
 30
0.0
 10
17.6440668615
 20
11.6041709472
 30
0.0
 10
17.6481208241
 20
11.6011398075
 30
0.0
 10
17.6521747893
 20
11.5981086957
 30
0.0
 10
17.6562287454
 20
11.5950774831
 30
0.0
 10
17.6596070703
 20
11.5925517853
 30
0.0
 10
17.6623096671
 20
11.5905305268
 30
0.0
 10
17.6639989338
 20
11.5892688347
 30
0.0
 10
17.665350018
 20
11.5882558295
 30
0.0
 10
17.6661951967
 20
11.5876310327
 30
0.0
 10
17.6667853166
 20
11.5871769776
 30
0.0
 10
17.667124883
 20
11.5869436421
 30
0.0
 10
17.6674733212
 20
11.5868087218
 30
0.0
 10
17.6679058312
 20
11.5866063743
 30
0.0
 10
17.6685995448
 20
11.5863014498
 30
0.0
 10
17.6694661056
 20
11.5859138462
 30
0.0
 10
17.6708529277
 20
11.5852972842
 30
0.0
 10
17.6725863439
 20
11.5845253453
 30
0.0
 10
17.674666491
 20
11.5835995478
 30
0.0
 10
17.6774400038
 20
11.5823649665
 30
0.0
 10
17.6822936591
 20
11.5802045357
 30
0.0
 10
17.6892274477
 20
11.5771181566
 30
0.0
 10
17.6961612402
 20
11.5740318107
 30
0.0
 10
17.7010148901
 20
11.5718713334
 30
0.0
 10
17.7037884114
 20
11.5706368253
 30
0.0
 10
17.7058685326
 20
11.5697108031
 30
0.0
 10
17.7076020298
 20
11.5689395673
 30
0.0
 10
17.7089886866
 20
11.5683215708
 30
0.0
 10
17.7098556681
 20
11.567937618
 30
0.0
 10
17.7105485181
 20
11.5676251997
 30
0.0
 10
17.7109832269
 20
11.5674419308
 30
0.0
 10
17.7113271516
 20
11.5672678476
 30
0.0
 10
17.7116851035
 20
11.5671940429
 30
0.0
 10
17.7123180356
 20
11.5671114683
 30
0.0
 10
17.7132188244
 20
11.5669691997
 30
0.0
 10
17.7146619864
 20
11.5667551526
 30
0.0
 10
17.7164652885
 20
11.566482943
 30
0.0
 10
17.7193509353
 20
11.5660500069
 30
0.0
 10
17.7229578691
 20
11.565507945
 30
0.0
 10
17.7272862431
 20
11.5648578525
 30
0.0
 10
17.7330573898
 20
11.5639909291
 30
0.0
 10
17.7402713295
 20
11.5629073206
 30
0.0
 10
17.7489280544
 20
11.5616069707
 30
0.0
 10
17.7546992049
 20
11.5607400745
 30
0.0
 10
17.75758478
 20
11.5603066259
 30
0.0
  0
SPLINE
  5
444
100
AcDbEntity
  8
03___PRT_ALL_CURVES
100
AcDbSpline
 62
7
  6
BYLAYER
 70
0
 71
3
 72
161
 73
157
 74
0
 42
0.0000001
 43
0.0000001
 44
0.0000000001
 40
0.0
 40
0.0
 40
0.0
 40
0.0
 40
0.03125
 40
0.0625
 40
0.078125
 40
0.09375
 40
0.109375
 40
0.125
 40
0.1328125
 40
0.140625
 40
0.1484375
 40
0.15234375
 40
0.15625
 40
0.16015625
 40
0.162109375
 40
0.1640625
 40
0.1650390625
 40
0.166015625
 40
0.1665039062
 40
0.1669921875
 40
0.1674804688
 40
0.16796875
 40
0.169921875
 40
0.171875
 40
0.173828125
 40
0.17578125
 40
0.1796875
 40
0.1875
 40
0.1953125
 40
0.203125
 40
0.2109375
 40
0.21875
 40
0.234375
 40
0.25
 40
0.265625
 40
0.28125
 40
0.2890625
 40
0.296875
 40
0.3046875
 40
0.3125
 40
0.3203125
 40
0.32421875
 40
0.326171875
 40
0.328125
 40
0.330078125
 40
0.33203125
 40
0.3325195312
 40
0.3330078125
 40
0.3332519531
 40
0.3334960938
 40
0.333984375
 40
0.3349609375
 40
0.3359375
 40
0.337890625
 40
0.33984375
 40
0.34375
 40
0.34765625
 40
0.3515625
 40
0.359375
 40
0.3671875
 40
0.375
 40
0.390625
 40
0.40625
 40
0.421875
 40
0.4375
 40
0.453125
 40
0.4609375
 40
0.46875
 40
0.4765625
 40
0.48046875
 40
0.484375
 40
0.48828125
 40
0.4921875
 40
0.494140625
 40
0.49609375
 40
0.498046875
 40
0.4990234375
 40
0.4995117188
 40
0.5
 40
0.5004882812
 40
0.5009765625
 40
0.501953125
 40
0.50390625
 40
0.505859375
 40
0.5078125
 40
0.51171875
 40
0.515625
 40
0.51953125
 40
0.5234375
 40
0.53125
 40
0.5390625
 40
0.546875
 40
0.5625
 40
0.578125
 40
0.59375
 40
0.609375
 40
0.625
 40
0.6328125
 40
0.640625
 40
0.6484375
 40
0.65234375
 40
0.65625
 40
0.66015625
 40
0.662109375
 40
0.6640625
 40
0.6650390625
 40
0.666015625
 40
0.6665039062
 40
0.6667480469
 40
0.6669921875
 40
0.6674804688
 40
0.66796875
 40
0.669921875
 40
0.671875
 40
0.673828125
 40
0.67578125
 40
0.6796875
 40
0.6875
 40
0.6953125
 40
0.703125
 40
0.7109375
 40
0.71875
 40
0.734375
 40
0.75
 40
0.765625
 40
0.78125
 40
0.7890625
 40
0.796875
 40
0.8046875
 40
0.8125
 40
0.8203125
 40
0.82421875
 40
0.826171875
 40
0.828125
 40
0.830078125
 40
0.83203125
 40
0.8325195312
 40
0.8330078125
 40
0.8334960938
 40
0.833984375
 40
0.8349609375
 40
0.8359375
 40
0.837890625
 40
0.83984375
 40
0.84375
 40
0.84765625
 40
0.8515625
 40
0.859375
 40
0.8671875
 40
0.875
 40
0.890625
 40
0.90625
 40
0.921875
 40
0.9375
 40
0.96875
 40
1.0
 40
1.0
 40
1.0
 40
1.0
 10
17.8988366647
 20
13.2718162455
 30
0.0
 10
17.8950059627
 20
13.276237147
 30
0.0
 10
17.8873445587
 20
13.28507895
 30
0.0
 10
17.8777678037
 20
13.2961312038
 30
0.0
 10
17.8701063997
 20
13.3049730068
 30
0.0
 10
17.8643603466
 20
13.311604359
 30
0.0
 10
17.8586142937
 20
13.3182357116
 30
0.0
 10
17.853825916
 20
13.3237618374
 30
0.0
 10
17.8499952143
 20
13.3281827412
 30
0.0
 10
17.8471221869
 20
13.3314984104
 30
0.0
 10
17.844728001
 20
13.3342614955
 30
0.0
 10
17.8428126441
 20
13.336471902
 30
0.0
 10
17.8413761487
 20
13.3381298752
 30
0.0
 10
17.8401789986
 20
13.3395109842
 30
0.0
 10
17.8392214368
 20
13.3406170721
 30
0.0
 10
17.8386226002
 20
13.3413056428
 30
0.0
 10
17.8381443564
 20
13.3418627614
 30
0.0
 10
17.8378435707
 20
13.3421966725
 30
0.0
 10
17.8376072557
 20
13.3424965272
 30
0.0
 10
17.8374182087
 20
13.3426318136
 30
0.0
 10
17.8372258521
 20
13.3427419911
 30
0.0
 10
17.8368428413
 20
13.3429752623
 30
0.0
 10
17.83626761
 20
13.3433197441
 30
0.0
 10
17.8355010437
 20
13.3437821539
 30
0.0
 10
17.834734368
 20
13.3442437343
 30
0.0
 10
17.833712172
 20
13.3448594641
 30
0.0
 10
17.8319233111
 20
13.3459368564
 30
0.0
 10
17.8293678048
 20
13.3474760588
 30
0.0
 10
17.8263011933
 20
13.3493230715
 30
0.0
 10
17.8232345829
 20
13.3511700922
 30
0.0
 10
17.8201679722
 20
13.3530171108
 30
0.0
 10
17.816079158
 20
13.355479803
 30
0.0
 10
17.8109681402
 20
13.358558168
 30
0.0
 10
17.8048349189
 20
13.3622522061
 30
0.0
 10
17.7987016976
 20
13.3659462442
 30
0.0
 10
17.7935906799
 20
13.3690246092
 30
0.0
 10
17.7895018657
 20
13.3714873015
 30
0.0
 10
17.786435255
 20
13.3733343199
 30
0.0
 10
17.7833686445
 20
13.3751813413
 30
0.0
 10
17.7803020331
 20
13.3770283514
 30
0.0
 10
17.7777465267
 20
13.3785675618
 30
0.0
 10
17.775957666
 20
13.3796449399
 30
0.0
 10
17.7749354696
 20
13.3802606926
 30
0.0
 10
17.774168795
 20
13.3807222025
 30
0.0
 10
17.7734022246
 20
13.381184877
 30
0.0
 10
17.7728270048
 20
13.3815286174
 30
0.0
 10
17.772443979
 20
13.3817628562
 30
0.0
 10
17.7722837093
 20
13.3818528986
 30
0.0
 10
17.7721570697
 20
13.3819425617
 30
0.0
 10
17.7720246659
 20
13.3819677536
 30
0.0
 10
17.7717902812
 20
13.3819818844
 30
0.0
 10
17.7714568431
 20
13.3820177003
 30
0.0
 10
17.7709225614
 20
13.3820662716
 30
0.0
 10
17.7702549766
 20
13.3821299762
 30
0.0
 10
17.7691866915
 20
13.3822302322
 30
0.0
 10
17.7678513863
 20
13.3823561257
 30
0.0
 10
17.7662489982
 20
13.3825069523
 30
0.0
 10
17.7641124884
 20
13.3827081403
 30
0.0
 10
17.7614418485
 20
13.3829595959
 30
0.0
 10
17.7582370818
 20
13.3832613552
 30
0.0
 10
17.7539640591
 20
13.3836636964
 30
0.0
 10
17.7486227809
 20
13.3841666246
 30
0.0
 10
17.7422132469
 20
13.3847701377
 30
0.0
 10
17.735803713
 20
13.3853736509
 30
0.0
 10
17.729394179
 20
13.3859771642
 30
0.0
 10
17.7240529008
 20
13.3864800917
 30
0.0
 10
17.7197798781
 20
13.3868824342
 30
0.0
 10
17.7165751112
 20
13.3871841899
 30
0.0
 10
17.7139044719
 20
13.3874356566
 30
0.0
 10
17.7117679609
 20
13.3876368219
 30
0.0
 10
17.7101655764
 20
13.3877877179
 30
0.0
 10
17.7085631969
 20
13.3879385295
 30
0.0
 10
17.7072278649
 20
13.3880644691
 30
0.0
 10
17.7061596346
 20
13.3881646312
 30
0.0
 10
17.7053583655
 20
13.3882413633
 30
0.0
 10
17.7046909476
 20
13.3883001841
 30
0.0
 10
17.7042231539
 20
13.3883514116
 30
0.0
 10
17.7039567819
 20
13.3883649876
 30
0.0
 10
17.7037543586
 20
13.3884193878
 30
0.0
 10
17.7035620433
 20
13.3883047637
 30
0.0
 10
17.703302097
 20
13.3882108892
 30
0.0
 10
17.7028488339
 20
13.3880191394
 30
0.0
 10
17.7022004562
 20
13.3877595724
 30
0.0
 10
17.7014227707
 20
13.3874419448
 30
0.0
 10
17.7003857282
 20
13.3870205886
 30
0.0
 10
17.6990894691
 20
13.3864931566
 30
0.0
 10
17.6975339394
 20
13.3858605541
 30
0.0
 10
17.6959784147
 20
13.385227867
 30
0.0
 10
17.69390438
 20
13.3843843138
 30
0.0
 10
17.6913118372
 20
13.3833298622
 30
0.0
 10
17.6882007856
 20
13.3820645246
 30
0.0
 10
17.6840527169
 20
13.3803774062
 30
0.0
 10
17.678867631
 20
13.3782685088
 30
0.0
 10
17.672645528
 20
13.3757378316
 30
0.0
 10
17.6664234249
 20
13.3732071545
 30
0.0
 10
17.6602013218
 20
13.3706764775
 30
0.0
 10
17.655016236
 20
13.3685675795
 30
0.0
 10
17.6508681672
 20
13.3668804623
 30
0.0
 10
17.6477571158
 20
13.3656151211
 30
0.0
 10
17.6451645724
 20
13.3645606807
 30
0.0
 10
17.6430905391
 20
13.3637171046
 30
0.0
 10
17.64153501
 20
13.3630844876
 30
0.0
 10
17.6402387489
 20
13.3625570996
 30
0.0
 10
17.6392017105
 20
13.3621356538
 30
0.0
 10
17.6385536288
 20
13.3618711923
 30
0.0
 10
17.6380350094
 20
13.3616620458
 30
0.0
 10
17.6377112236
 20
13.3615258015
 30
0.0
 10
17.6374838695
 20
13.3614415088
 30
0.0
 10
17.6373550544
 20
13.3613760085
 30
0.0
 10
17.6372303888
 20
13.3612452233
 30
0.0
 10
17.6370731384
 20
13.3611040564
 30
0.0
 10
17.6366969048
 20
13.3607468901
 30
0.0
 10
17.6361320642
 20
13.3602188544
 30
0.0
 10
17.6353792235
 20
13.3595103979
 30
0.0
 10
17.6346263079
 20
13.3588031208
 30
0.0
 10
17.6336224466
 20
13.3578596732
 30
0.0
 10
17.6318656771
 20
13.3562088317
 30
0.0
 10
17.6293560127
 20
13.3538503864
 30
0.0
 10
17.6263444128
 20
13.351020295
 30
0.0
 10
17.6233328136
 20
13.3481901921
 30
0.0
 10
17.6203212141
 20
13.3453600923
 30
0.0
 10
17.6163057483
 20
13.3415866248
 30
0.0
 10
17.611286416
 20
13.3368697908
 30
0.0
 10
17.6052632173
 20
13.3312095899
 30
0.0
 10
17.5992400185
 20
13.325549389
 30
0.0
 10
17.5942206862
 20
13.320832555
 30
0.0
 10
17.5902052204
 20
13.3170590876
 30
0.0
 10
17.587193621
 20
13.3142289875
 30
0.0
 10
17.5841820219
 20
13.3113988854
 30
0.0
 10
17.5811704213
 20
13.3085687911
 30
0.0
 10
17.578660759
 20
13.3062103549
 30
0.0
 10
17.5769039858
 20
13.3045594972
 30
0.0
 10
17.5759001304
 20
13.3036160756
 30
0.0
 10
17.5751471965
 20
13.3029087188
 30
0.0
 10
17.5743944247
 20
13.3022005613
 30
0.0
 10
17.5738293912
 20
13.3016716884
 30
0.0
 10
17.5734534093
 20
13.3013156147
 30
0.0
 10
17.5732641558
 20
13.3011438131
 30
0.0
 10
17.573079811
 20
13.3009477686
 30
0.0
 10
17.5728573743
 20
13.3005710239
 30
0.0
 10
17.5725713313
 20
13.3001395893
 30
0.0
 10
17.5721181317
 20
13.2994272216
 30
0.0
 10
17.5715501019
 20
13.2985443197
 30
0.0
 10
17.5706421095
 20
13.2971274525
 30
0.0
 10
17.5695068255
 20
13.2953578178
 30
0.0
 10
17.5681446104
 20
13.2932336358
 30
0.0
 10
17.5663282797
 20
13.2904016099
 30
0.0
 10
17.5640578814
 20
13.2868615031
 30
0.0
 10
17.5613333969
 20
13.2826134068
 30
0.0
 10
17.5577007532
 20
13.2769492672
 30
0.0
 10
17.5531599478
 20
13.2698690966
 30
0.0
 10
17.5477109817
 20
13.2613728902
 30
0.0
 10
17.5422620155
 20
13.2528766843
 30
0.0
 10
17.5349967272
 20
13.2415484096
 30
0.0
 10
17.5259151169
 20
13.2273880662
 30
0.0
 10
17.5186498286
 20
13.2160597915
 30
0.0
 10
17.5150171845
 20
13.2103956542
 30
0.0
  0
SPLINE
  5
445
100
AcDbEntity
  8
03___PRT_ALL_CURVES
100
AcDbSpline
 62
7
  6
BYLAYER
 70
0
 71
3
 72
203
 73
199
 74
0
 42
0.0000001
 43
0.0000001
 44
0.0000000001
 40
0.0
 40
0.0
 40
0.0
 40
0.0
 40
0.03125
 40
0.046875
 40
0.0625
 40
0.078125
 40
0.0859375
 40
0.09375
 40
0.1015625
 40
0.10546875
 40
0.109375
 40
0.11328125
 40
0.1171875
 40
0.119140625
 40
0.12109375
 40
0.1220703125
 40
0.123046875
 40
0.1240234375
 40
0.1245117188
 40
0.125
 40
0.1254882812
 40
0.1259765625
 40
0.126953125
 40
0.1279296875
 40
0.12890625
 40
0.130859375
 40
0.1328125
 40
0.13671875
 40
0.140625
 40
0.14453125
 40
0.1484375
 40
0.15625
 40
0.1640625
 40
0.171875
 40
0.1875
 40
0.203125
 40
0.2109375
 40
0.21875
 40
0.2265625
 40
0.234375
 40
0.23828125
 40
0.2421875
 40
0.244140625
 40
0.24609375
 40
0.248046875
 40
0.2490234375
 40
0.2495117188
 40
0.25
 40
0.2504882812
 40
0.2509765625
 40
0.251953125
 40
0.25390625
 40
0.255859375
 40
0.2578125
 40
0.26171875
 40
0.265625
 40
0.2734375
 40
0.28125
 40
0.2890625
 40
0.296875
 40
0.3125
 40
0.328125
 40
0.3359375
 40
0.34375
 40
0.3515625
 40
0.359375
 40
0.36328125
 40
0.3671875
 40
0.369140625
 40
0.37109375
 40
0.373046875
 40
0.3740234375
 40
0.3745117188
 40
0.375
 40
0.3754882812
 40
0.3759765625
 40
0.376953125
 40
0.37890625
 40
0.380859375
 40
0.3828125
 40
0.38671875
 40
0.390625
 40
0.3984375
 40
0.40625
 40
0.4140625
 40
0.421875
 40
0.4375
 40
0.453125
 40
0.4609375
 40
0.46875
 40
0.4765625
 40
0.484375
 40
0.48828125
 40
0.4921875
 40
0.494140625
 40
0.49609375
 40
0.498046875
 40
0.4990234375
 40
0.4995117188
 40
0.5
 40
0.5004882812
 40
0.5009765625
 40
0.501953125
 40
0.50390625
 40
0.505859375
 40
0.5078125
 40
0.51171875
 40
0.515625
 40
0.5234375
 40
0.53125
 40
0.5390625
 40
0.546875
 40
0.5625
 40
0.578125
 40
0.5859375
 40
0.59375
 40
0.6015625
 40
0.609375
 40
0.61328125
 40
0.6171875
 40
0.619140625
 40
0.62109375
 40
0.623046875
 40
0.6240234375
 40
0.6245117188
 40
0.625
 40
0.6254882812
 40
0.6259765625
 40
0.626953125
 40
0.62890625
 40
0.630859375
 40
0.6328125
 40
0.63671875
 40
0.640625
 40
0.6484375
 40
0.65625
 40
0.6640625
 40
0.671875
 40
0.6875
 40
0.703125
 40
0.7109375
 40
0.71875
 40
0.7265625
 40
0.734375
 40
0.73828125
 40
0.7421875
 40
0.744140625
 40
0.74609375
 40
0.748046875
 40
0.7490234375
 40
0.7495117188
 40
0.75
 40
0.7504882812
 40
0.7509765625
 40
0.751953125
 40
0.75390625
 40
0.755859375
 40
0.7578125
 40
0.76171875
 40
0.765625
 40
0.7734375
 40
0.78125
 40
0.7890625
 40
0.796875
 40
0.8125
 40
0.828125
 40
0.8359375
 40
0.84375
 40
0.8515625
 40
0.85546875
 40
0.859375
 40
0.86328125
 40
0.8671875
 40
0.869140625
 40
0.87109375
 40
0.8720703125
 40
0.873046875
 40
0.8740234375
 40
0.8745117188
 40
0.875
 40
0.8754882812
 40
0.8759765625
 40
0.876953125
 40
0.8779296875
 40
0.87890625
 40
0.880859375
 40
0.8828125
 40
0.88671875
 40
0.890625
 40
0.89453125
 40
0.8984375
 40
0.90625
 40
0.9140625
 40
0.921875
 40
0.9375
 40
0.953125
 40
0.96875
 40
1.0
 40
1.0
 40
1.0
 40
1.0
 10
17.4746780487
 20
13.119651483
 30
0.0
 10
17.4709399622
 20
13.1075812534
 30
0.0
 10
17.4653328326
 20
13.089475909
 30
0.0
 10
17.4578566597
 20
13.0653354498
 30
0.0
 10
17.45224953
 20
13.0472301054
 30
0.0
 10
17.447576922
 20
13.0321423185
 30
0.0
 10
17.4438388356
 20
13.0200720888
 30
0.0
 10
17.4410352706
 20
13.0110194169
 30
0.0
 10
17.438698967
 20
13.0034755226
 30
0.0
 10
17.436829923
 20
12.9974404093
 30
0.0
 10
17.4354281429
 20
12.9929140687
 30
0.0
 10
17.4340263518
 20
12.9883877495
 30
0.0
 10
17.4328582267
 20
12.9846157503
 30
0.0
 10
17.4319236502
 20
12.9815982998
 30
0.0
 10
17.431339714
 20
12.9797120545
 30
0.0
 10
17.4308721662
 20
12.9782038339
 30
0.0
 10
17.4305225973
 20
12.977070545
 30
0.0
 10
17.4302278165
 20
12.9761328923
 30
0.0
 10
17.4299997818
 20
12.9753676206
 30
0.0
 10
17.42980747
 20
12.9748350628
 30
0.0
 10
17.4296964066
 20
12.9741444958
 30
0.0
 10
17.429519941
 20
12.9732789346
 30
0.0
 10
17.4293090964
 20
12.972178046
 30
0.0
 10
17.4290519149
 20
12.9708650854
 30
0.0
 10
17.4287104621
 20
12.9691116401
 30
0.0
 10
17.4282831476
 20
12.9669208028
 30
0.0
 10
17.427599723
 20
12.9634149214
 30
0.0
 10
17.4267453466
 20
12.9590327556
 30
0.0
 10
17.4257201359
 20
12.9537740769
 30
0.0
 10
17.4246949143
 20
12.9485154195
 30
0.0
 10
17.4233279559
 20
12.9415038689
 30
0.0
 10
17.4216192567
 20
12.9327394331
 30
0.0
 10
17.4195688181
 20
12.9222221092
 30
0.0
 10
17.4168348999
 20
12.9081990109
 30
0.0
 10
17.4134175022
 20
12.8906701379
 30
0.0
 10
17.4100001041
 20
12.8731412653
 30
0.0
 10
17.4072661866
 20
12.8591181664
 30
0.0
 10
17.405215746
 20
12.8486008446
 30
0.0
 10
17.4031653146
 20
12.8380835138
 30
0.0
 10
17.401456593
 20
12.8293190993
 30
0.0
 10
17.4000896802
 20
12.8223075054
 30
0.0
 10
17.3992352129
 20
12.8179254009
 30
0.0
 10
17.3985519754
 20
12.8144193928
 30
0.0
 10
17.3980386262
 20
12.8117907754
 30
0.0
 10
17.3976137652
 20
12.8095974337
 30
0.0
 10
17.3973106125
 20
12.8080676429
 30
0.0
 10
17.3971463606
 20
12.8071848134
 30
0.0
 10
17.3969978799
 20
12.806547096
 30
0.0
 10
17.3969460769
 20
12.8058160912
 30
0.0
 10
17.3968432839
 20
12.8048739579
 30
0.0
 10
17.396679108
 20
12.8032100637
 30
0.0
 10
17.3964363566
 20
12.8008409982
 30
0.0
 10
17.396148571
 20
12.797994727
 30
0.0
 10
17.3957636288
 20
12.7942008836
 30
0.0
 10
17.3952828715
 20
12.7894581737
 30
0.0
 10
17.3945134249
 20
12.7818700646
 30
0.0
 10
17.3935516972
 20
12.7723848505
 30
0.0
 10
17.3923975894
 20
12.7610026268
 30
0.0
 10
17.3912434909
 20
12.7496203943
 30
0.0
 10
17.3897046896
 20
12.7344440873
 30
0.0
 10
17.3877811893
 20
12.7154737024
 30
0.0
 10
17.3858576881
 20
12.6965033182
 30
0.0
 10
17.3843188881
 20
12.6813270103
 30
0.0
 10
17.3831647856
 20
12.6699447804
 30
0.0
 10
17.3820106928
 20
12.6585625467
 30
0.0
 10
17.3810489184
 20
12.6490773638
 30
0.0
 10
17.3802795671
 20
12.641489191
 30
0.0
 10
17.3797985673
 20
12.6367466432
 30
0.0
 10
17.3794141228
 20
12.6329524671
 30
0.0
 10
17.3791248166
 20
12.6301072126
 30
0.0
 10
17.3788868229
 20
12.627734966
 30
0.0
 10
17.3787141538
 20
12.6260767506
 30
0.0
 10
17.3786249691
 20
12.6251255184
 30
0.0
 10
17.3785313657
 20
12.6244224624
 30
0.0
 10
17.3785398802
 20
12.623679774
 30
0.0
 10
17.3785156129
 20
12.622703347
 30
0.0
 10
17.3784897412
 20
12.6209881588
 30
0.0
 10
17.3784441051
 20
12.6185412574
 30
0.0
 10
17.3783930556
 20
12.6156035344
 30
0.0
 10
17.3783236924
 20
12.6116870738
 30
0.0
 10
17.3782374325
 20
12.6067913256
 30
0.0
 10
17.3780991685
 20
12.5989582249
 30
0.0
 10
17.3779264237
 20
12.589166816
 30
0.0
 10
17.3777190935
 20
12.5774171394
 30
0.0
 10
17.377511773
 20
12.565667459
 30
0.0
 10
17.3772353422
 20
12.5500012199
 30
0.0
 10
17.3768898051
 20
12.5304184205
 30
0.0
 10
17.376544267
 20
12.5108356212
 30
0.0
 10
17.3762678377
 20
12.4951693819
 30
0.0
 10
17.376060513
 20
12.4834197021
 30
0.0
 10
17.3758531983
 20
12.4716700237
 30
0.0
 10
17.3756804052
 20
12.4618786204
 30
0.0
 10
17.3755422396
 20
12.4540455082
 30
0.0
 10
17.3754557295
 20
12.4491497892
 30
0.0
 10
17.3753868801
 20
12.4452332688
 30
0.0
 10
17.3753342608
 20
12.4422957284
 30
0.0
 10
17.3752935359
 20
12.4398482555
 30
0.0
 10
17.3752588968
 20
12.4381340875
 30
0.0
 10
17.3752486772
 20
12.437156026
 30
0.0
 10
17.3752140419
 20
12.4364183583
 30
0.0
 10
17.3752825018
 20
12.4356964453
 30
0.0
 10
17.3753378209
 20
12.4347283993
 30
0.0
 10
17.3754513841
 20
12.4330368791
 30
0.0
 10
17.3756048577
 20
12.4306190831
 30
0.0
 10
17.3757927754
 20
12.4277183008
 30
0.0
 10
17.3760420227
 20
12.423850391
 30
0.0
 10
17.3763540303
 20
12.4190155723
 30
0.0
 10
17.3768529918
 20
12.4112798241
 30
0.0
 10
17.3774767796
 20
12.4016101519
 30
0.0
 10
17.3782252882
 20
12.3900065397
 30
0.0
 10
17.3789738066
 20
12.378402929
 30
0.0
 10
17.3799718277
 20
12.3629314475
 30
0.0
 10
17.3812193554
 20
12.3435920958
 30
0.0
 10
17.3824668822
 20
12.3242527439
 30
0.0
 10
17.3834649047
 20
12.308781263
 30
0.0
 10
17.3842134191
 20
12.2971776505
 30
0.0
 10
17.3849619429
 20
12.2855740448
 30
0.0
 10
17.3855856832
 20
12.2759043524
 30
0.0
 10
17.3860847418
 20
12.2681686454
 30
0.0
 10
17.3863965021
 20
12.2633337216
 30
0.0
 10
17.3866462569
 20
12.2594660276
 30
0.0
 10
17.3868326244
 20
12.2565645859
 30
0.0
 10
17.3869909481
 20
12.2541488531
 30
0.0
 10
17.3870958529
 20
12.2524536498
 30
0.0
 10
17.387165045
 20
12.251491505
 30
0.0
 10
17.3871908916
 20
12.2507514652
 30
0.0
 10
17.3873163049
 20
12.2500818788
 30
0.0
 10
17.3874487926
 20
12.2491645219
 30
0.0
 10
17.3876968275
 20
12.2475705972
 30
0.0
 10
17.3880427033
 20
12.2452875759
 30
0.0
 10
17.3884613753
 20
12.2425505125
 30
0.0
 10
17.3890183398
 20
12.2389001998
 30
0.0
 10
17.3897149786
 20
12.2343376153
 30
0.0
 10
17.3908293585
 20
12.2270373089
 30
0.0
 10
17.3922224165
 20
12.2179119845
 30
0.0
 10
17.3938940505
 20
12.2069615702
 30
0.0
 10
17.395565694
 20
12.1960111626
 30
0.0
 10
17.3977945486
 20
12.1814106167
 30
0.0
 10
17.4005806182
 20
12.1631599353
 30
0.0
 10
17.403366687
 20
12.1449092531
 30
0.0
 10
17.4055955429
 20
12.1303087085
 30
0.0
 10
17.4072671826
 20
12.119358297
 30
0.0
 10
17.408938831
 20
12.1084078972
 30
0.0
 10
17.4103318441
 20
12.0992825277
 30
0.0
 10
17.4114463157
 20
12.0919823135
 30
0.0
 10
17.4121427211
 20
12.0874194942
 30
0.0
 10
17.4127001645
 20
12.0837696635
 30
0.0
 10
17.4131173736
 20
12.0810311274
 30
0.0
 10
17.4134678265
 20
12.0787527137
 30
0.0
 10
17.4137076904
 20
12.0771505637
 30
0.0
 10
17.4138532701
 20
12.0762463859
 30
0.0
 10
17.4139384689
 20
12.0755363174
 30
0.0
 10
17.4141153545
 20
12.0749483215
 30
0.0
 10
17.4143192205
 20
12.0741217467
 30
0.0
 10
17.4146908867
 20
12.0726950798
 30
0.0
 10
17.4152140483
 20
12.0706466121
 30
0.0
 10
17.4158451766
 20
12.0681928905
 30
0.0
 10
17.4166855163
 20
12.064919711
 30
0.0
 10
17.4177363398
 20
12.0608287675
 30
0.0
 10
17.4194174344
 20
12.0542829613
 30
0.0
 10
17.4215188792
 20
12.0461008053
 30
0.0
 10
17.4240405802
 20
12.0362821744
 30
0.0
 10
17.4265622899
 20
12.0264635553
 30
0.0
 10
17.4299245665
 20
12.013372059
 30
0.0
 10
17.4341274133
 20
11.99700769
 30
0.0
 10
17.4383302597
 20
11.9806433205
 30
0.0
 10
17.4416925369
 20
11.9675518251
 30
0.0
 10
17.4442142447
 20
11.9577332032
 30
0.0
 10
17.4463156683
 20
11.9495510193
 30
0.0
 10
17.4479968061
 20
11.9430052701
 30
0.0
 10
17.4492576625
 20
11.9380959637
 30
0.0
 10
17.4505185074
 20
11.9331866361
 30
0.0
 10
17.4515692472
 20
11.9290955961
 30
0.0
 10
17.452409759
 20
11.9258226155
 30
0.0
 10
17.4529352611
 20
11.9237773409
 30
0.0
 10
17.4533552455
 20
11.9221403466
 30
0.0
 10
17.4536713761
 20
11.9209147215
 30
0.0
 10
17.4539311847
 20
11.9198866214
 30
0.0
 10
17.4541471811
 20
11.9190792711
 30
0.0
 10
17.4542869098
 20
11.9184324166
 30
0.0
 10
17.4545116379
 20
11.9179433642
 30
0.0
 10
17.4547815841
 20
11.9172361721
 30
0.0
 10
17.4551292037
 20
11.9163710941
 30
0.0
 10
17.4555419869
 20
11.9153249054
 30
0.0
 10
17.4560938875
 20
11.9139328147
 30
0.0
 10
17.4567832418
 20
11.9121917331
 30
0.0
 10
17.4578865
 20
11.9094065437
 30
0.0
 10
17.4592654729
 20
11.9059248713
 30
0.0
 10
17.4609202831
 20
11.901746944
 30
0.0
 10
17.4625750819
 20
11.8975689954
 30
0.0
 10
17.4647814843
 20
11.8919984047
 30
0.0
 10
17.467539486
 20
11.8850351638
 30
0.0
 10
17.4708490885
 20
11.8766792758
 30
0.0
 10
17.4752618917
 20
11.8655380914
 30
0.0
 10
17.4807778958
 20
11.851611611
 30
0.0
 10
17.4873971006
 20
11.8348998345
 30
0.0
 10
17.496222707
 20
11.8126174659
 30
0.0
 10
17.5028419119
 20
11.7959056894
 30
0.0
 10
17.5072547151
 20
11.7847645051
 30
0.0
  0
SPLINE
  5
446
100
AcDbEntity
  8
0
100
AcDbSpline
 62
7
  6
BYLAYER
 70
0
 71
3
 72
13
 73
9
 74
0
 42
0.0000001
 43
0.0000001
 44
0.0000000001
 40
0.0
 40
0.0
 40
0.0
 40
0.0
 40
0.2875113952
 40
0.5445861878
 40
0.6639765158
 40
0.7787025855
 40
0.8901854377
 40
1.0
 40
1.0
 40
1.0
 40
1.0
 10
16.9115072645
 20
13.3460383683
 30
0.0
 10
16.9016481266
 20
13.3573374314
 30
0.0
 10
16.8815429982
 20
13.3775735132
 30
0.0
 10
16.8530366146
 20
13.3976672139
 30
0.0
 10
16.8298944934
 20
13.408778553
 30
0.0
 10
16.812789315
 20
13.4146113085
 30
0.0
 10
16.7955708791
 20
13.4181250072
 30
0.0
 10
16.78401379
 20
13.4189086245
 30
0.0
 10
16.7782861989
 20
13.4189074845
 30
0.0
  0
SPLINE
  5
447
100
AcDbEntity
  8
0
100
AcDbSpline
 62
7
  6
BYLAYER
 70
0
 71
3
 72
9
 73
5
 74
0
 42
0.0000001
 43
0.0000001
 44
0.0000000001
 40
0.0
 40
0.0
 40
0.0
 40
0.0
 40
0.2357826308
 40
1.0
 40
1.0
 40
1.0
 40
1.0
 10
16.6283650726
 20
11.6576999
 30
0.0
 10
16.6275072631
 20
11.6581723734
 30
0.0
 10
16.6237186993
 20
11.6599030904
 30
0.0
 10
16.619485066
 20
11.6605397071
 30
0.0
 10
16.6163108983
 20
11.6605397071
 30
0.0
  0
SPLINE
  5
448
100
AcDbEntity
  8
0
100
AcDbSpline
 62
7
  6
BYLAYER
 70
0
 71
3
 72
11
 73
7
 74
0
 42
0.0000001
 43
0.0000001
 44
0.0000000001
 40
0.0
 40
0.0
 40
0.0
 40
0.0
 40
0.2268630568
 40
0.4649901318
 40
0.7222804645
 40
1.0
 40
1.0
 40
1.0
 40
1.0
 10
16.5749840349
 20
11.641907203
 30
0.0
 10
16.5757369719
 20
11.640378995
 30
0.0
 10
16.5778356475
 20
11.6374923631
 30
0.0
 10
16.5823287307
 20
11.6343119469
 30
0.0
 10
16.5878708921
 20
11.6323811883
 30
0.0
 10
16.5919058143
 20
11.6319790169
 30
0.0
 10
16.5939913438
 20
11.6319790169
 30
0.0
  0
SPLINE
  5
449
100
AcDbEntity
  8
0
100
AcDbSpline
 62
7
  6
BYLAYER
 70
0
 71
3
 72
11
 73
7
 74
0
 42
0.0000001
 43
0.0000001
 44
0.0000000001
 40
0.0
 40
0.0
 40
0.0
 40
0.0
 40
0.278089274
 40
0.5372776436
 40
0.7772352813
 40
1.0
 40
1.0
 40
1.0
 40
1.0
 10
14.5748495265
 20
13.0388906657
 30
0.0
 10
14.5819462612
 20
13.0618557075
 30
0.0
 10
14.5971553223
 20
13.1057855895
 30
0.0
 10
14.62420968
 20
13.1673737474
 30
0.0
 10
14.6548220764
 20
13.2218710451
 30
0.0
 10
14.6785668967
 20
13.2542430512
 30
0.0
 10
14.6911471027
 20
13.2688196893
 30
0.0
  0
SPLINE
  5
44A
100
AcDbEntity
  8
0
100
AcDbSpline
 62
7
  6
BYLAYER
 70
0
 71
3
 72
23
 73
19
 74
0
 42
0.0000001
 43
0.0000001
 44
0.0000000001
 40
0.0
 40
0.0
 40
0.0
 40
0.0
 40
0.0456478593
 40
0.0946034729
 40
0.1472209043
 40
0.2035661569
 40
0.2634730129
 40
0.3265942283
 40
0.3924489187
 40
0.4604585785
 40
0.5299739018
 40
0.6002988667
 40
0.6707137605
 40
0.7404982528
 40
0.8089484512
 40
0.875392269
 40
0.9392629143
 40
1.0
 40
1.0
 40
1.0
 40
1.0
 10
14.6913723007
 20
11.8901603512
 30
0.0
 10
14.6795276151
 20
11.903854365
 30
0.0
 10
14.6570970838
 20
11.9340964961
 30
0.0
 10
14.6279148713
 20
11.9847837132
 30
0.0
 10
14.6018905542
 20
12.0418463305
 30
0.0
 10
14.5789558402
 20
12.1048395034
 30
0.0
 10
14.5591696619
 20
12.1732292377
 30
0.0
 10
14.5426469887
 20
12.2463436864
 30
0.0
 10
14.5295185111
 20
12.3234003001
 30
0.0
 10
14.5199072106
 20
12.4035256546
 30
0.0
 10
14.5139120913
 20
12.4857782376
 30
0.0
 10
14.5115971763
 20
12.5691698578
 30
0.0
 10
14.5129868201
 20
12.6526886577
 30
0.0
 10
14.5180663978
 20
12.7353203581
 30
0.0
 10
14.5267825586
 20
12.8160653062
 30
0.0
 10
14.5390408668
 20
12.8939793831
 30
0.0
 10
14.5547302302
 20
12.968152342
 30
0.0
 10
14.5677367525
 20
13.0158737204
 30
0.0
 10
14.5748495265
 20
13.0388906657
 30
0.0
  0
SPLINE
  5
44B
100
AcDbEntity
  8
0
100
AcDbSpline
 62
7
  6
BYLAYER
 70
0
 71
3
 72
12
 73
8
 74
0
 42
0.0000001
 43
0.0000001
 44
0.0000000001
 40
0.0
 40
0.0
 40
0.0
 40
0.0
 40
0.2873131877
 40
0.5444195591
 40
0.7783611574
 40
0.8900065597
 40
1.0
 40
1.0
 40
1.0
 40
1.0
 10
17.1039258943
 20
13.2509645128
 30
0.0
 10
17.0953394235
 20
13.2607403667
 30
0.0
 10
17.0778192625
 20
13.2782503937
 30
0.0
 10
17.0487926422
 20
13.2986082737
 30
0.0
 10
17.0233281578
 20
13.3092058266
 30
0.0
 10
17.0030580065
 20
13.3133141823
 30
0.0
 10
16.9930078357
 20
13.3139952679
 30
0.0
 10
16.9880266467
 20
13.3139964597
 30
0.0
  0
SPLINE
  5
44C
100
AcDbEntity
  8
0
100
AcDbSpline
 62
7
  6
BYLAYER
 70
0
 71
3
 72
13
 73
9
 74
0
 42
0.0000001
 43
0.0000001
 44
0.0000000001
 40
0.0
 40
0.0
 40
0.0
 40
0.0
 40
0.1099360474
 40
0.2215253788
 40
0.3363307114
 40
0.4557606398
 40
0.7127822091
 40
1.0
 40
1.0
 40
1.0
 40
1.0
 10
16.9879912752
 20
11.8452477079
 30
0.0
 10
16.9929771818
 20
11.8452465075
 30
0.0
 10
17.0030369088
 20
11.8459237102
 30
0.0
 10
17.0180255662
 20
11.8489667069
 30
0.0
 10
17.0329166009
 20
11.8540181375
 30
0.0
 10
17.0530629514
 20
11.8636376593
 30
0.0
 10
17.0778819671
 20
11.881039065
 30
0.0
 10
17.0954058067
 20
11.8985711633
 30
0.0
 10
17.1039980877
 20
11.9083616047
 30
0.0
  0
SPLINE
  5
44D
100
AcDbEntity
  8
0
100
AcDbSpline
 62
7
  6
BYLAYER
 70
0
 71
3
 72
11
 73
7
 74
0
 42
0.0000001
 43
0.0000001
 44
0.0000000001
 40
0.0
 40
0.0
 40
0.0
 40
0.0
 40
0.2762229654
 40
0.5308359272
 40
0.7696349914
 40
1.0
 40
1.0
 40
1.0
 40
1.0
 10
16.9615524221
 20
11.8449587706
 30
0.0
 10
16.9540441728
 20
11.8383725428
 30
0.0
 10
16.9387809412
 20
11.8266074997
 30
0.0
 10
16.9142195846
 20
11.8132412289
 30
0.0
 10
16.8891736111
 20
11.8051167459
 30
0.0
 10
16.8721596339
 20
11.8032824793
 30
0.0
 10
16.8638301522
 20
11.8032830298
 30
0.0
  0
SPLINE
  5
44E
100
AcDbEntity
  8
0
100
AcDbSpline
 62
7
  6
BYLAYER
 70
0
 71
3
 72
11
 73
7
 74
0
 42
0.0000001
 43
0.0000001
 44
0.0000000001
 40
0.0
 40
0.0
 40
0.0
 40
0.0
 40
0.2304318828
 40
0.4692700925
 40
0.7238810361
 40
1.0
 40
1.0
 40
1.0
 40
1.0
 10
16.8638301522
 20
13.3559606399
 30
0.0
 10
16.8721402972
 20
13.3559599967
 30
0.0
 10
16.8891138015
 20
13.3541384683
 30
0.0
 10
16.9141023536
 20
13.3460483557
 30
0.0
 10
16.9386108916
 20
13.3327441402
 30
0.0
 10
16.9538443552
 20
13.3210292371
 30
0.0
 10
16.9613381031
 20
13.3144717218
 30
0.0
  0
SPLINE
  5
44F
100
AcDbEntity
  8
0
100
AcDbSpline
 62
7
  6
BYLAYER
 70
0
 71
3
 72
12
 73
8
 74
0
 42
0.0000001
 43
0.0000001
 44
0.0000000001
 40
0.0
 40
0.0
 40
0.0
 40
0.0
 40
0.1127233516
 40
0.2267560738
 40
0.4633881939
 40
0.7190827967
 40
1.0
 40
1.0
 40
1.0
 40
1.0
 10
16.7782931292
 20
11.7403379928
 30
0.0
 10
16.7833046931
 20
11.7403373915
 30
0.0
 10
16.7933967096
 20
11.7409345054
 30
0.0
 10
16.8137179319
 20
11.7445519133
 30
0.0
 10
16.839272358
 20
11.7538410158
 30
0.0
 10
16.8687454705
 20
11.7718805867
 30
0.0
 10
16.8868401717
 20
11.7875897042
 30
0.0
 10
16.89572208
 20
11.7963700255
 30
0.0
  0
SPLINE
  5
450
100
AcDbEntity
  8
0
100
AcDbSpline
 62
7
  6
BYLAYER
 70
0
 71
3
 72
40
 73
36
 74
0
 42
0.0000001
 43
0.0000001
 44
0.0000000001
 40
0.0
 40
0.0
 40
0.0
 40
0.0
 40
0.0083664217
 40
0.0168442837
 40
0.034521288
 40
0.053782423
 40
0.0751352344
 40
0.0988859487
 40
0.1251768735
 40
0.1540297904
 40
0.1853744058
 40
0.2190694896
 40
0.2549213552
 40
0.2926920469
 40
0.3321095695
 40
0.3728758971
 40
0.4146709828
 40
0.4999835782
 40
0.5852963437
 40
0.6270915202
 40
0.6678579867
 40
0.7072760791
 40
0.7450468087
 40
0.7808992134
 40
0.8145949214
 40
0.8459395754
 40
0.8747934242
 40
0.9010847763
 40
0.9248356319
 40
0.9461893712
 40
0.9654506879
 40
0.9744604069
 40
0.9831558245
 40
0.9916336473
 40
1.0
 40
1.0
 40
1.0
 40
1.0
 10
14.8778482433
 20
11.7403379928
 30
0.0
 10
14.8724920282
 20
11.7403386355
 30
0.0
 10
14.8616956435
 20
11.7410245529
 30
0.0
 10
14.8399380369
 20
11.7451689451
 30
0.0
 10
14.8125921124
 20
11.755836786
 30
0.0
 10
14.7812255444
 20
11.7764437304
 30
0.0
 10
14.7509944233
 20
11.8046813039
 30
0.0
 10
14.7221036405
 20
11.8402464033
 30
0.0
 10
14.6947492736
 20
11.8828068013
 30
0.0
 10
14.6691604305
 20
11.931981652
 30
0.0
 10
14.6455650957
 20
11.9873219022
 30
0.0
 10
14.6241791322
 20
12.0483127696
 30
0.0
 10
14.6052088479
 20
12.1143821577
 30
0.0
 10
14.5888353585
 20
12.1849039665
 30
0.0
 10
14.5752152654
 20
12.2592061995
 30
0.0
 10
14.5644828754
 20
12.3365806623
 30
0.0
 10
14.5540936273
 20
12.4435759713
 30
0.0
 10
14.5489665303
 20
12.5796140159
 30
0.0
 10
14.554091896
 20
12.7156522343
 30
0.0
 10
14.564481284
 20
12.8226477954
 30
0.0
 10
14.5752132247
 20
12.9000228091
 30
0.0
 10
14.5888316203
 20
12.9743258605
 30
0.0
 10
14.6052059897
 20
13.044848227
 30
0.0
 10
14.6241750456
 20
13.110918716
 30
0.0
 10
14.6455600106
 20
13.1719108306
 30
0.0
 10
14.6691564235
 20
13.2272516225
 30
0.0
 10
14.6947437079
 20
13.2764285052
 30
0.0
 10
14.7220967274
 20
13.3189900283
 30
0.0
 10
14.7509928234
 20
13.3545559355
 30
0.0
 10
14.7812081175
 20
13.3827949849
 30
0.0
 10
14.8079487345
 20
13.400344092
 30
0.0
 10
14.8295824977
 20
13.4100447877
 30
0.0
 10
14.8455903899
 20
13.4151480419
 30
0.0
 10
14.861689544
 20
13.4182191001
 30
0.0
 10
14.8724851421
 20
13.4189064184
 30
0.0
 10
14.877841313
 20
13.4189074845
 30
0.0
  0
SPLINE
  5
451
100
AcDbEntity
  8
0
100
AcDbSpline
 62
7
  6
BYLAYER
 70
0
 71
3
 72
13
 73
9
 74
0
 42
0.0000001
 43
0.0000001
 44
0.0000000001
 40
0.0
 40
0.0
 40
0.0
 40
0.0
 40
0.2565793543
 40
0.3900097224
 40
0.5228713246
 40
0.6524276705
 40
0.7762391507
 40
1.0
 40
1.0
 40
1.0
 40
1.0
 10
16.6163108983
 20
11.6605397071
 30
0.0
 10
16.6123675682
 20
11.6605397071
 30
0.0
 10
16.6063338439
 20
11.6594176248
 30
0.0
 10
16.5989482735
 20
11.656208933
 30
0.0
 10
16.5937784292
 20
11.6529538684
 30
0.0
 10
16.5892877298
 20
11.6490251433
 30
0.0
 10
16.5846426698
 20
11.6433359576
 30
0.0
 10
16.5824136428
 20
11.6382435575
 30
0.0
 10
16.5818905902
 20
11.6348446202
 30
0.0
  0
SPLINE
  5
452
100
AcDbEntity
  8
0
100
AcDbSpline
 62
7
  6
BYLAYER
 70
0
 71
3
 72
14
 73
10
 74
0
 42
0.0000001
 43
0.0000001
 44
0.0000000001
 40
0.0
 40
0.0
 40
0.0
 40
0.0
 40
0.269993807
 40
0.4094466673
 40
0.5451394958
 40
0.6729569133
 40
0.7905704427
 40
0.8983629651
 40
1.0
 40
1.0
 40
1.0
 40
1.0
 10
16.5939913438
 20
11.6319790169
 30
0.0
 10
16.5990400872
 20
11.6319790169
 30
0.0
 10
16.606771502
 20
11.6338074339
 30
0.0
 10
16.6156762431
 20
11.6388365403
 30
0.0
 10
16.6214360004
 20
11.6437848662
 30
0.0
 10
16.6257589844
 20
11.6495282067
 30
0.0
 10
16.6283358272
 20
11.6557005299
 30
0.0
 10
16.6289282201
 20
11.6618940465
 30
0.0
 10
16.6278784746
 20
11.6657789255
 30
0.0
 10
16.6270384994
 20
11.6674837916
 30
0.0
  0
SPLINE
  5
453
100
AcDbEntity
  8
0
100
AcDbSpline
 62
7
  6
BYLAYER
 70
0
 71
3
 72
10
 73
6
 74
0
 42
0.0000001
 43
0.0000001
 44
0.0000000001
 40
0.0
 40
0.0
 40
0.0
 40
0.0
 40
0.4971344496
 40
0.7531684481
 40
1.0
 40
1.0
 40
1.0
 40
1.0
 10
15.936732597
 20
12.077178574
 30
0.0
 10
15.9433921084
 20
12.077178574
 30
0.0
 10
15.9535849504
 20
12.0744275778
 30
0.0
 10
15.9649199971
 20
12.0672213701
 30
0.0
 10
15.9698081842
 20
12.0624872146
 30
0.0
 10
15.971903525
 20
12.0599293791
 30
0.0
  0
LINE
  5
454
100
AcDbEntity
  8
0
100
AcDbLine
 62
7
  6
BYLAYER
 10
15.971903525
 20
12.0599293791
 11
15.9746772691
 21
12.0561189319
  0
SPLINE
  5
455
100
AcDbEntity
  8
0
100
AcDbSpline
 62
7
  6
BYLAYER
 70
0
 71
3
 72
40
 73
36
 74
0
 42
0.0000001
 43
0.0000001
 44
0.0000000001
 40
0.0
 40
0.0
 40
0.0
 40
0.0
 40
0.0083663527
 40
0.0168441755
 40
0.0255395931
 40
0.0345493121
 40
0.0538106288
 40
0.0751643681
 40
0.0989152237
 40
0.1252065758
 40
0.1540604246
 40
0.1854050786
 40
0.2191007866
 40
0.2549531913
 40
0.2927239209
 40
0.3321420133
 40
0.3729084798
 40
0.4147036563
 40
0.5000164218
 40
0.5853290172
 40
0.6271241029
 40
0.6678904305
 40
0.7073079531
 40
0.7450786448
 40
0.7809305104
 40
0.8146255942
 40
0.8459702096
 40
0.8748231265
 40
0.9011140513
 40
0.9248647656
 40
0.946217577
 40
0.965478712
 40
0.9831557163
 40
0.9916335783
 40
1.0
 40
1.0
 40
1.0
 40
1.0
 10
16.7782861989
 20
13.4189074845
 30
0.0
 10
16.772930028
 20
13.4189064184
 30
0.0
 10
16.76213443
 20
13.4182191001
 30
0.0
 10
16.7460352759
 20
13.4151480419
 30
0.0
 10
16.7300273836
 20
13.4100447877
 30
0.0
 10
16.7083936204
 20
13.400344092
 30
0.0
 10
16.6816530035
 20
13.3827949849
 30
0.0
 10
16.6514377093
 20
13.3545559355
 30
0.0
 10
16.6225416134
 20
13.3189900283
 30
0.0
 10
16.5951885938
 20
13.2764285052
 30
0.0
 10
16.5696013094
 20
13.2272516225
 30
0.0
 10
16.5460048966
 20
13.1719108306
 30
0.0
 10
16.5246199316
 20
13.110918716
 30
0.0
 10
16.5056508756
 20
13.044848227
 30
0.0
 10
16.4892765063
 20
12.9743258605
 30
0.0
 10
16.4756581106
 20
12.9000228091
 30
0.0
 10
16.4649261699
 20
12.8226477954
 30
0.0
 10
16.454536782
 20
12.7156522343
 30
0.0
 10
16.4494114162
 20
12.5796140159
 30
0.0
 10
16.4545385132
 20
12.4435759713
 30
0.0
 10
16.4649277614
 20
12.3365806623
 30
0.0
 10
16.4756601513
 20
12.2592061995
 30
0.0
 10
16.4892802445
 20
12.1849039665
 30
0.0
 10
16.5056537339
 20
12.1143821577
 30
0.0
 10
16.5246240181
 20
12.0483127696
 30
0.0
 10
16.5460099816
 20
11.9873219022
 30
0.0
 10
16.5696053165
 20
11.931981652
 30
0.0
 10
16.5951941596
 20
11.8828068013
 30
0.0
 10
16.6225485265
 20
11.8402464033
 30
0.0
 10
16.6514393092
 20
11.8046813039
 30
0.0
 10
16.6816704304
 20
11.7764437304
 30
0.0
 10
16.7130369983
 20
11.755836786
 30
0.0
 10
16.7403829228
 20
11.7451689451
 30
0.0
 10
16.7621405295
 20
11.7410245529
 30
0.0
 10
16.7729369141
 20
11.7403386355
 30
0.0
 10
16.7782931292
 20
11.7403379928
 30
0.0
  0
SPLINE
  5
456
100
AcDbEntity
  8
0
100
AcDbSpline
 62
7
  6
BYLAYER
 70
0
 71
3
 72
37
 73
33
 74
0
 42
0.0000001
 43
0.0000001
 44
0.0000000001
 40
0.0
 40
0.0
 40
0.0
 40
0.0
 40
0.0083667926
 40
0.0168450065
 40
0.0345218288
 40
0.0537830842
 40
0.0751356451
 40
0.0988855569
 40
0.1251769365
 40
0.1540297768
 40
0.1853748006
 40
0.2190711608
 40
0.2549238999
 40
0.2926964239
 40
0.3321160339
 40
0.4146648628
 40
0.4999834863
 40
0.5853030434
 40
0.6678542916
 40
0.707276092
 40
0.7450503171
 40
0.780906153
 40
0.8146052177
 40
0.8459529471
 40
0.8748097329
 40
0.9011036666
 40
0.9248569506
 40
0.9462127073
 40
0.9654757844
 40
0.9831545262
 40
0.9916330006
 40
1.0
 40
1.0
 40
1.0
 40
1.0
 10
16.9880266467
 20
13.3139964597
 30
0.0
 10
16.983339981
 20
13.3139975811
 30
0.0
 10
16.9738929079
 20
13.3133995861
 30
0.0
 10
16.9548557181
 20
13.3097736403
 30
0.0
 10
16.9309255643
 20
13.3004493386
 30
0.0
 10
16.9034791708
 20
13.2824213443
 30
0.0
 10
16.8770258605
 20
13.2577184507
 30
0.0
 10
16.8517428648
 20
13.2266046405
 30
0.0
 10
16.8278079243
 20
13.1893669901
 30
0.0
 10
16.8054148918
 20
13.1463427252
 30
0.0
 10
16.7847665974
 20
13.0979227665
 30
0.0
 10
16.766053193
 20
13.0445573922
 30
0.0
 10
16.74945106
 20
12.9867485128
 30
0.0
 10
16.7351220198
 20
12.9250421977
 30
0.0
 10
16.7189857215
 20
12.8370029867
 30
0.0
 10
16.7055844797
 20
12.7215212676
 30
0.0
 10
16.7002254637
 20
12.5796670221
 30
0.0
 10
16.7055768186
 20
12.437811027
 30
0.0
 10
16.7189740892
 20
12.3223258126
 30
0.0
 10
16.7351045218
 20
12.2342819007
 30
0.0
 10
16.7494327091
 20
12.1725713898
 30
0.0
 10
16.7660300544
 20
12.1147568025
 30
0.0
 10
16.7847416019
 20
12.0613856461
 30
0.0
 10
16.8053887218
 20
12.0129596207
 30
0.0
 10
16.8277771683
 20
11.9699271136
 30
0.0
 10
16.8517127395
 20
11.9326832178
 30
0.0
 10
16.876993238
 20
11.9015612443
 30
0.0
 10
16.9034440824
 20
11.8768481827
 30
0.0
 10
16.930891564
 20
11.8588159151
 30
0.0
 10
16.9548192566
 20
11.8494785048
 30
0.0
 10
16.9738575916
 20
11.8458509168
 30
0.0
 10
16.9833044936
 20
11.8452488362
 30
0.0
 10
16.9879912752
 20
11.8452477079
 30
0.0
  0
SPLINE
  5
457
100
AcDbEntity
  8
0
100
AcDbSpline
 62
7
  6
BYLAYER
 70
0
 71
3
 72
11
 73
7
 74
0
 42
0.0000001
 43
0.0000001
 44
0.0000000001
 40
0.0
 40
0.0
 40
0.0
 40
0.0
 40
0.2930274129
 40
0.551096739
 40
0.7821450612
 40
1.0
 40
1.0
 40
1.0
 40
1.0
 10
16.0873838293
 20
11.8262383411
 30
0.0
 10
16.0878763235
 20
11.8256174248
 30
0.0
 10
16.088724321
 20
11.824382177
 30
0.0
 10
16.0895790038
 20
11.8224295463
 30
0.0
 10
16.0898983215
 20
11.8205201782
 30
0.0
 10
16.0897240106
 20
11.8192948167
 30
0.0
 10
16.0895500395
 20
11.818731877
 30
0.0
  0
SPLINE
  5
458
100
AcDbEntity
  8
0
100
AcDbSpline
 62
7
  6
BYLAYER
 70
0
 71
3
 72
37
 73
33
 74
0
 42
0.0000001
 43
0.0000001
 44
0.0000000001
 40
0.0
 40
0.0
 40
0.0
 40
0.0
 40
0.0083669276
 40
0.0168451927
 40
0.0345231412
 40
0.0537850373
 40
0.0751393607
 40
0.0988910732
 40
0.1251833878
 40
0.1540385722
 40
0.1853847681
 40
0.2190824073
 40
0.2549369546
 40
0.2927100535
 40
0.3321309099
 40
0.4146808688
 40
0.4999999878
 40
0.5853190491
 40
0.6678691685
 40
0.7072897223
 40
0.7450633702
 40
0.7809173948
 40
0.8146151795
 40
0.8459617339
 40
0.8748161754
 40
0.9011091753
 40
0.9248606589
 40
0.9462146567
 40
0.9654770955
 40
0.9831547122
 40
0.9916331359
 40
1.0
 40
1.0
 40
1.0
 40
1.0
 10
16.9024818189
 20
11.845247705
 30
0.0
 10
16.8977950777
 20
11.8452480912
 30
0.0
 10
16.8883482373
 20
11.8458486632
 30
0.0
 10
16.8693099318
 20
11.8494731934
 30
0.0
 10
16.8453820135
 20
11.8588067391
 30
0.0
 10
16.8179339516
 20
11.8768347169
 30
0.0
 10
16.7914824327
 20
11.9015436605
 30
0.0
 10
16.7662011479
 20
11.932661681
 30
0.0
 10
16.7422646734
 20
11.9699018185
 30
0.0
 10
16.7198751955
 20
12.012930794
 30
0.0
 10
16.699226918
 20
12.0613535523
 30
0.0
 10
16.6805140982
 20
12.1147217424
 30
0.0
 10
16.6639153707
 20
12.1725336942
 30
0.0
 10
16.6495857066
 20
12.2342419292
 30
0.0
 10
16.6334531218
 20
12.3222835306
 30
0.0
 10
16.6200530863
 20
12.4377669187
 30
0.0
 10
16.6146983703
 20
12.5796220568
 30
0.0
 10
16.620054025
 20
12.7214771431
 30
0.0
 10
16.633452502
 20
12.8369606748
 30
0.0
 10
16.6495866395
 20
12.9250021865
 30
0.0
 10
16.6639142
 20
12.9867107675
 30
0.0
 10
16.6805149463
 20
13.0445222723
 30
0.0
 10
16.6992270669
 20
13.0978906058
 30
0.0
 10
16.7198741994
 20
13.1463138243
 30
0.0
 10
16.7422661895
 20
13.1893416187
 30
0.0
 10
16.766200214
 20
13.2265830307
 30
0.0
 10
16.7914824181
 20
13.2577007955
 30
0.0
 10
16.8179350388
 20
13.2824078226
 30
0.0
 10
16.8453808436
 20
13.3004401195
 30
0.0
 10
16.8693107656
 20
13.3097683021
 30
0.0
 10
16.88834798
 20
13.31339732
 30
0.0
 10
16.8977951133
 20
13.3139968377
 30
0.0
 10
16.9024818189
 20
13.3139964625
 30
0.0
  0
SPLINE
  5
459
100
AcDbEntity
  8
0
100
AcDbSpline
 62
7
  6
BYLAYER
 70
0
 71
3
 72
11
 73
7
 74
0
 42
0.0000001
 43
0.0000001
 44
0.0000000001
 40
0.0
 40
0.0
 40
0.0
 40
0.0
 40
0.2268630568
 40
0.4649901318
 40
0.7222804645
 40
1.0
 40
1.0
 40
1.0
 40
1.0
 10
16.6270384994
 20
11.6674837916
 30
0.0
 10
16.6262855624
 20
11.6690119995
 30
0.0
 10
16.6241868868
 20
11.6718986315
 30
0.0
 10
16.6196938036
 20
11.6750790476
 30
0.0
 10
16.6141516422
 20
11.6770098062
 30
0.0
 10
16.61011672
 20
11.6774119777
 30
0.0
 10
16.6080311905
 20
11.6774119777
 30
0.0
  0
SPLINE
  5
45A
100
AcDbEntity
  8
0
100
AcDbSpline
 62
7
  6
BYLAYER
 70
0
 71
3
 72
11
 73
7
 74
0
 42
0.0000001
 43
0.0000001
 44
0.0000000001
 40
0.0
 40
0.0
 40
0.0
 40
0.0
 40
0.2836301226
 40
0.5455715303
 40
0.7845319147
 40
1.0
 40
1.0
 40
1.0
 40
1.0
 10
15.9791131675
 20
12.0461364761
 30
0.0
 10
15.9862227642
 20
12.0239636711
 30
0.0
 10
16.0011908957
 20
11.9817090931
 30
0.0
 10
16.0270524259
 20
11.9226504316
 30
0.0
 10
16.0551968964
 20
11.8709234746
 30
0.0
 10
16.0763914106
 20
11.8400971253
 30
0.0
 10
16.0873838293
 20
11.8262383411
 30
0.0
  0
SPLINE
  5
45B
100
AcDbEntity
  8
0
100
AcDbSpline
 62
7
  6
BYLAYER
 70
0
 71
3
 72
37
 73
33
 74
0
 42
0.0000001
 43
0.0000001
 44
0.0000000001
 40
0.0
 40
0.0
 40
0.0
 40
0.0
 40
0.0083670124
 40
0.0168454632
 40
0.0345241061
 40
0.0537871416
 40
0.0751429297
 40
0.0988960703
 40
0.125190029
 40
0.1540467495
 40
0.1853943757
 40
0.219093478
 40
0.2549492218
 40
0.2927234172
 40
0.3321452171
 40
0.4146964284
 40
0.5000159726
 40
0.5853346114
 40
0.6678834763
 40
0.7073031242
 40
0.7450756764
 40
0.7809284603
 40
0.8146248601
 40
0.8459699392
 40
0.8748228313
 40
0.901114246
 40
0.9248642394
 40
0.9462168254
 40
0.9654781253
 40
0.9831549875
 40
0.9916332059
 40
1.0
 40
1.0
 40
1.0
 40
1.0
 10
16.778284822
 20
11.8032830324
 30
0.0
 10
16.773330217
 20
11.8032841277
 30
0.0
 10
16.7633434908
 20
11.8039208265
 30
0.0
 10
16.7432174299
 20
11.8077561582
 30
0.0
 10
16.7179224379
 20
11.8176266878
 30
0.0
 10
16.6889063446
 20
11.8366890781
 30
0.0
 10
16.6609443574
 20
11.8628145151
 30
0.0
 10
16.6342188425
 20
11.8957144596
 30
0.0
 10
16.60891578
 20
11.9350866387
 30
0.0
 10
16.5852479186
 20
11.9805779822
 30
0.0
 10
16.5634207321
 20
12.031771034
 30
0.0
 10
16.5436402007
 20
12.0881919535
 30
0.0
 10
16.5260942011
 20
12.1493101006
 30
0.0
 10
16.5109472153
 20
12.2145468422
 30
0.0
 10
16.4938951073
 20
12.3076217964
 30
0.0
 10
16.4797320952
 20
12.4297061001
 30
0.0
 10
16.4740748056
 20
12.579668118
 30
0.0
 10
16.4797399641
 20
12.7296283358
 30
0.0
 10
16.4939069376
 20
12.8517090568
 30
0.0
 10
16.5109651872
 20
12.9447791567
 30
0.0
 10
16.526113015
 20
13.0100116122
 30
0.0
 10
16.5436637622
 20
13.0711239425
 30
0.0
 10
16.5634464857
 20
13.1275388564
 30
0.0
 10
16.5852746205
 20
13.1787257832
 30
0.0
 10
16.6089472016
 20
13.2242087014
 30
0.0
 10
16.6342498962
 20
13.2635742939
 30
0.0
 10
16.6609774848
 20
13.2964662683
 30
0.0
 10
16.6889424918
 20
13.3225807968
 30
0.0
 10
16.717957189
 20
13.3416391602
 30
0.0
 10
16.7432547624
 20
13.3514964359
 30
0.0
 10
16.763379797
 20
13.355329762
 30
0.0
 10
16.7733667128
 20
13.3559617834
 30
0.0
 10
16.7783211885
 20
13.3559606371
 30
0.0
  0
SPLINE
  5
45C
100
AcDbEntity
  8
0
100
AcDbSpline
 62
7
  6
BYLAYER
 70
0
 71
3
 72
37
 73
33
 74
0
 42
0.0000001
 43
0.0000001
 44
0.0000000001
 40
0.0
 40
0.0
 40
0.0
 40
0.0
 40
0.0083669438
 40
0.0168451914
 40
0.0345230621
 40
0.0537849474
 40
0.0751393399
 40
0.0988909505
 40
0.1251833344
 40
0.1540384973
 40
0.1853846326
 40
0.21908235
 40
0.2549368412
 40
0.2927099421
 40
0.3321308237
 40
0.4146807785
 40
0.4999998991
 40
0.5853189706
 40
0.6678690992
 40
0.7072896691
 40
0.7450633175
 40
0.780917354
 40
0.8146151401
 40
0.8459617074
 40
0.8748161548
 40
0.9011091421
 40
0.9248606597
 40
0.9462146381
 40
0.9654770843
 40
0.9831547154
 40
0.991633137
 40
1.0
 40
1.0
 40
1.0
 40
1.0
 10
16.8638301522
 20
11.8032830298
 30
0.0
 10
16.8588755874
 20
11.8032833572
 30
0.0
 10
16.8488889218
 20
11.8039184959
 30
0.0
 10
16.8287628852
 20
11.8077506689
 30
0.0
 10
16.8034676516
 20
11.8176172074
 30
0.0
 10
16.7744509504
 20
11.8366751737
 30
0.0
 10
16.7464882586
 20
11.8627963676
 30
0.0
 10
16.7197619237
 20
11.8956922425
 30
0.0
 10
16.6944579237
 20
11.9350605574
 30
0.0
 10
16.6707889924
 20
11.9805482721
 30
0.0
 10
16.6489606071
 20
12.0317379696
 30
0.0
 10
16.629178762
 20
12.0881558468
 30
0.0
 10
16.6116313347
 20
12.149271292
 30
0.0
 10
16.5964828267
 20
12.2145057017
 30
0.0
 10
16.5794285019
 20
12.3075782897
 30
0.0
 10
16.5652626433
 20
12.4296607299
 30
0.0
 10
16.5596018962
 20
12.5796218885
 30
0.0
 10
16.5652636008
 20
12.7295829993
 30
0.0
 10
16.5794277375
 20
12.8516656097
 30
0.0
 10
16.5964837736
 20
12.9447380945
 30
0.0
 10
16.611630087
 20
13.0099728919
 30
0.0
 10
16.6291794167
 20
13.0710879311
 30
0.0
 10
16.6489608292
 20
13.1275058936
 30
0.0
 10
16.670787779
 20
13.1786961741
 30
0.0
 10
16.6944592985
 20
13.224182719
 30
0.0
 10
16.719761061
 20
13.2635521727
 30
0.0
 10
16.7464878459
 20
13.2964482017
 30
0.0
 10
16.774452153
 20
13.322566965
 30
0.0
 10
16.8034662534
 20
13.341629733
 30
0.0
 10
16.8287635943
 20
13.3514909778
 30
0.0
 10
16.8488886566
 20
13.3553274459
 30
0.0
 10
16.8588756352
 20
13.3559610234
 30
0.0
 10
16.8638301522
 20
13.3559606399
 30
0.0
  0
SPLINE
  5
45D
100
AcDbEntity
  8
0
100
AcDbSpline
 62
7
  6
BYLAYER
 70
0
 71
3
 72
11
 73
7
 74
0
 42
0.0000001
 43
0.0000001
 44
0.0000000001
 40
0.0
 40
0.0
 40
0.0
 40
0.0
 40
0.2286008525
 40
0.4657004514
 40
0.7215192159
 40
1.0
 40
1.0
 40
1.0
 40
1.0
 10
15.6492014515
 20
12.061824641
 30
0.0
 10
15.649893627
 20
12.0640644562
 30
0.0
 10
15.6521585104
 20
12.0684101817
 30
0.0
 10
15.6577981925
 20
12.0734218255
 30
0.0
 10
15.6652024619
 20
12.0765350747
 30
0.0
 10
15.6707164591
 20
12.077178574
 30
0.0
 10
15.673572313
 20
12.077178574
 30
0.0
  0
SPLINE
  5
45E
100
AcDbEntity
  8
0
100
AcDbSpline
 62
7
  6
BYLAYER
 70
0
 71
3
 72
14
 73
10
 74
0
 42
0.0000001
 43
0.0000001
 44
0.0000000001
 40
0.0
 40
0.0
 40
0.0
 40
0.0
 40
0.269993807
 40
0.4094466673
 40
0.5451394958
 40
0.6729569133
 40
0.7905704427
 40
0.8983629651
 40
1.0
 40
1.0
 40
1.0
 40
1.0
 10
16.6080311905
 20
11.6774119777
 30
0.0
 10
16.602982447
 20
11.6774119777
 30
0.0
 10
16.5952510323
 20
11.6755835607
 30
0.0
 10
16.5863462912
 20
11.6705544543
 30
0.0
 10
16.5805865339
 20
11.6656061283
 30
0.0
 10
16.5762635499
 20
11.6598627879
 30
0.0
 10
16.5736867071
 20
11.6536904646
 30
0.0
 10
16.5730943142
 20
11.647496948
 30
0.0
 10
16.5741440597
 20
11.6436120691
 30
0.0
 10
16.5749840349
 20
11.641907203
 30
0.0
  0
ELLIPSE
  5
45F
100
AcDbEntity
  8
0
100
AcDbEllipse
 62
7
  6
BYLAYER
 10
4.8481428571
 20
11.8993669115
 30
0.0
 11
0.0
 21
0.0509134725
 31
0.0
 40
0.7014702392
 41
-0.0
 42
1.5707963268
  0
ELLIPSE
  5
460
100
AcDbEntity
  8
0
100
AcDbEllipse
 62
7
  6
BYLAYER
 10
5.1338571429
 20
11.8993669115
 30
0.0
 11
0.0
 21
0.0509134725
 31
0.0
 40
0.7014702392
 41
-1.5707963268
 42
0.0
  0
ELLIPSE
  5
461
100
AcDbEntity
  8
0
100
AcDbEllipse
 62
7
  6
BYLAYER
 10
15.6533653362
 20
11.9543342801
 30
0.0
 11
0.0019874534
 21
0.0620733301
 31
0.0
 40
0.5294716676
 41
0.0169509104
 42
1.0928150168
  0
ELLIPSE
  5
462
100
AcDbEntity
  8
0
100
AcDbEllipse
 62
7
  6
BYLAYER
 10
15.9165256202
 20
11.9543342801
 30
0.0
 11
0.0019874534
 21
0.0620733301
 31
0.0
 40
0.5294716676
 41
-1.5538454164
 42
0.0169509104
  0
ELLIPSE
  5
463
100
AcDbEntity
  8
0
100
AcDbEllipse
 62
7
  6
BYLAYER
 10
15.9022247731
 20
11.3335117895
 30
0.0
 11
0.0019874534
 21
0.0620733301
 31
0.0
 40
0.5294716676
 41
-2.0487776368
 42
-1.5538454164
  0
ENDSEC
  0
SECTION
  2
OBJECTS
  0
DICTIONARY
  5
C
100
AcDbDictionary
280
0
281
1
  3
ACAD_GROUP
350
D
  3
ACAD_MLINESTYLE
350
17
  3
ACAD_LAYOUT
350
1A
  3
ACAD_PLOTSETTINGS
350
19
  3
ACAD_PLOTSTYLENAME
350
E
  0
DICTIONARY
  5
D
102
{ACAD_REACTORS
330
C
102
}
100
AcDbDictionary
280
0
281
1
  0
ACDBDICTIONARYWDFLT
  5
E
102
{ACAD_REACTORS
330
C
102
}
100
AcDbDictionary
281
1
  3
Normal
350
F
100
AcDbDictionaryWithDefault
340
F
  0
DICTIONARY
  5
17
102
{ACAD_REACTORS
330
C
102
}
100
AcDbDictionary
280
0
281
1
  3
Standard
350
18
  0
DICTIONARY
  5
19
102
{ACAD_REACTORS
330
C
102
}
100
AcDbDictionary
281
1
  0
DICTIONARY
  5
1A
102
{ACAD_REACTORS
330
C
102
}
100
AcDbDictionary
281
1
  3
Model
350
464
  3
Layout1
350
465
  0
ACDBPLACEHOLDER
  5
F
102
{ACAD_REACTORS
330
E
102
}
  0
MLINESTYLE
  5
18
102
{ACAD_REACTORS
330
17
102
}
100
AcDbMlineStyle
  2
STANDARD
 70
0
  3

 62
256
 51
90.0
 52
90.0
 71
2
 49
0.5
 62
256
  6
BYLAYER
 49
-0.5
 62
256
  6
BYLAYER
  0
LAYOUT
  5
464
102
{ACAD_REACTORS
330
1A
102
}
100
AcDbPlotSettings
  1

  2
none_device
  4
ANSI_C_(22.00_x_17.00_Inches)
  6

 40
0.0
 41
0.0
 42
0.0
 43
0.0
 44
558.8
 45
431.8
 46
0.0
 47
0.0
 48
0.0
 49
0.0
140
0.0
141
0.0
142
1.0
143
1.0
 70
1024
 72
0
 73
0
 74
0
  7

 75
0
147
1.0
148
0.0
149
0.0
100
AcDbLayout
  1
Model
 70
0
 71
0
 10
0.0
 20
0.0
 11
22.0
 21
17.0
 12
0.0
 22
0.0
 32
0.0
 14
0.0
 24
0.0
 34
0.0
 15
0.0
 25
0.0
 35
0.0
146
0.0
 13
0.0
 23
0.0
 33
0.0
 16
1.0
 26
0.0
 36
0.0
 17
0.0
 27
1.0
 37
0.0
 76
0
330
218
345
0
346
0
  0
LAYOUT
  5
465
102
{ACAD_REACTORS
330
1A
102
}
100
AcDbPlotSettings
  1

  2
none_device
  4
ANSI_C_(22.00_x_17.00_Inches)
  6

 40
0.0
 41
0.0
 42
0.0
 43
0.0
 44
558.8
 45
431.8
 46
0.0
 47
0.0
 48
0.0
 49
0.0
140
0.0
141
0.0
142
1.0
143
1.0
 70
0
 72
0
 73
0
 74
0
  7

 75
0
147
1.0
148
0.0
149
0.0
100
AcDbLayout
  1
Layout1
 70
0
 71
1
 10
0.0
 20
0.0
 11
22.0
 21
17.0
 12
0.0
 22
0.0
 32
0.0
 14
0.0
 24
0.0
 34
0.0
 15
0.0
 25
0.0
 35
0.0
146
0.0
 13
0.0
 23
0.0
 33
0.0
 16
1.0
 26
0.0
 36
0.0
 17
0.0
 27
1.0
 37
0.0
 76
0
330
219
345
0
346
0
  0
ENDSEC
  0
EOF
